  0
SECTION
  2
HEADER
  9
$ACADVER
  1
AC1027
  9
$ACADMAINTVER
 70
   125
  9
$DWGCODEPAGE
  3
ANSI_1252
  9
$LASTSAVEDBY
  1
Guazzelli
  9
$REQUIREDVERSIONS
160
                 0
  9
$INSBASE
 10
0.0
 20
0.0
 30
0.0
  9
$EXTMIN
 10
18014.93867412984
 20
-7404.354591358449
 30
0.0
  9
$EXTMAX
 10
18708.07432081902
 20
-6979.604780947248
 30
0.0
  9
$LIMMIN
 10
0.0
 20
0.0
  9
$LIMMAX
 10
297.0
 20
210.0
  9
$ORTHOMODE
 70
     1
  9
$REGENMODE
 70
     1
  9
$FILLMODE
 70
     1
  9
$QTEXTMODE
 70
     0
  9
$MIRRTEXT
 70
     1
  9
$LTSCALE
 40
1.0
  9
$ATTMODE
 70
     1
  9
$TEXTSIZE
 40
2.5
  9
$TRACEWID
 40
1.0
  9
$TEXTSTYLE
  7
样式 2
  9
$CLAYER
  8
0
  9
$CELTYPE
  6
ByLayer
  9
$CECOLOR
 62
   256
  9
$CELTSCALE
 40
1.0
  9
$DISPSILH
 70
     0
  9
$DIMSCALE
 40
2.5
  9
$DIMASZ
 40
2.5
  9
$DIMEXO
 40
0.625
  9
$DIMDLI
 40
3.75
  9
$DIMRND
 40
0.0
  9
$DIMDLE
 40
0.0
  9
$DIMEXE
 40
1.25
  9
$DIMTP
 40
0.0
  9
$DIMTM
 40
0.0
  9
$DIMTXT
 40
3.0
  9
$DIMCEN
 40
0.0
  9
$DIMTSZ
 40
0.0
  9
$DIMTOL
 70
     0
  9
$DIMLIM
 70
     0
  9
$DIMTIH
 70
     0
  9
$DIMTOH
 70
     0
  9
$DIMSE1
 70
     0
  9
$DIMSE2
 70
     0
  9
$DIMTAD
 70
     1
  9
$DIMZIN
 70
     8
  9
$DIMBLK
  1

  9
$DIMASO
 70
     1
  9
$DIMSHO
 70
     1
  9
$DIMPOST
  1

  9
$DIMAPOST
  1

  9
$DIMALT
 70
     0
  9
$DIMALTD
 70
     3
  9
$DIMALTF
 40
0.03937007874016
  9
$DIMLFAC
 40
1.0
  9
$DIMTOFL
 70
     1
  9
$DIMTVP
 40
0.0
  9
$DIMTIX
 70
     0
  9
$DIMSOXD
 70
     0
  9
$DIMSAH
 70
     0
  9
$DIMBLK1
  1

  9
$DIMBLK2
  1

  9
$DIMSTYLE
  2
尺寸标注
  9
$DIMCLRD
 70
     0
  9
$DIMCLRE
 70
     0
  9
$DIMCLRT
 70
     0
  9
$DIMTFAC
 40
1.0
  9
$DIMGAP
 40
0.625
  9
$DIMJUST
 70
     0
  9
$DIMSD1
 70
     0
  9
$DIMSD2
 70
     0
  9
$DIMTOLJ
 70
     0
  9
$DIMTZIN
 70
     8
  9
$DIMALTZ
 70
     0
  9
$DIMALTTZ
 70
     0
  9
$DIMUPT
 70
     0
  9
$DIMDEC
 70
     0
  9
$DIMTDEC
 70
     0
  9
$DIMALTU
 70
     2
  9
$DIMALTTD
 70
     3
  9
$DIMTXSTY
  7
样式 1
  9
$DIMAUNIT
 70
     0
  9
$DIMADEC
 70
     0
  9
$DIMALTRND
 40
0.0
  9
$DIMAZIN
 70
     0
  9
$DIMDSEP
 70
    46
  9
$DIMATFIT
 70
     3
  9
$DIMFRAC
 70
     0
  9
$DIMLDRBLK
  1

  9
$DIMLUNIT
 70
     2
  9
$DIMLWD
 70
    -2
  9
$DIMLWE
 70
    -2
  9
$DIMTMOVE
 70
     0
  9
$DIMFXL
 40
1.0
  9
$DIMFXLON
 70
     0
  9
$DIMJOGANG
 40
0.7853981633974483
  9
$DIMTFILL
 70
     0
  9
$DIMTFILLCLR
 70
     0
  9
$DIMARCSYM
 70
     0
  9
$DIMLTYPE
  6

  9
$DIMLTEX1
  6

  9
$DIMLTEX2
  6

  9
$DIMTXTDIRECTION
 70
     0
  9
$LUNITS
 70
     2
  9
$LUPREC
 70
     4
  9
$SKETCHINC
 40
1.0
  9
$FILLETRAD
 40
0.5
  9
$AUNITS
 70
     0
  9
$AUPREC
 70
     0
  9
$MENU
  1
.
  9
$ELEVATION
 40
0.0
  9
$PELEVATION
 40
0.0
  9
$THICKNESS
 40
0.0
  9
$LIMCHECK
 70
     0
  9
$CHAMFERA
 40
0.5
  9
$CHAMFERB
 40
0.5
  9
$CHAMFERC
 40
20.0
  9
$CHAMFERD
 40
0.0
  9
$SKPOLY
 70
     0
  9
$TDCREATE
 40
2454552.913113426
  9
$TDUCREATE
 40
2454553.038116852
  9
$TDUPDATE
 40
2459284.558726852
  9
$TDUUPDATE
 40
2459284.683726852
  9
$TDINDWG
 40
1.0723540509
  9
$TDUSRTIMER
 40
1.0723540509
  9
$USRTIMER
 70
     1
  9
$ANGBASE
 50
0.0
  9
$ANGDIR
 70
     0
  9
$PDMODE
 70
     0
  9
$PDSIZE
 40
0.0
  9
$PLINEWID
 40
0.0
  9
$SPLFRAME
 70
     0
  9
$SPLINETYPE
 70
     6
  9
$SPLINESEGS
 70
 30000
  9
$HANDSEED
  5
682D9
  9
$SURFTAB1
 70
     6
  9
$SURFTAB2
 70
     6
  9
$SURFTYPE
 70
     6
  9
$SURFU
 70
     6
  9
$SURFV
 70
     6
  9
$UCSBASE
  2

  9
$UCSNAME
  2

  9
$UCSORG
 10
0.0
 20
0.0
 30
0.0
  9
$UCSXDIR
 10
1.0
 20
0.0
 30
0.0
  9
$UCSYDIR
 10
0.0
 20
1.0
 30
0.0
  9
$UCSORTHOREF
  2

  9
$UCSORTHOVIEW
 70
     0
  9
$UCSORGTOP
 10
0.0
 20
0.0
 30
0.0
  9
$UCSORGBOTTOM
 10
0.0
 20
0.0
 30
0.0
  9
$UCSORGLEFT
 10
0.0
 20
0.0
 30
0.0
  9
$UCSORGRIGHT
 10
0.0
 20
0.0
 30
0.0
  9
$UCSORGFRONT
 10
0.0
 20
0.0
 30
0.0
  9
$UCSORGBACK
 10
0.0
 20
0.0
 30
0.0
  9
$PUCSBASE
  2

  9
$PUCSNAME
  2

  9
$PUCSORG
 10
0.0
 20
0.0
 30
0.0
  9
$PUCSXDIR
 10
1.0
 20
0.0
 30
0.0
  9
$PUCSYDIR
 10
0.0
 20
1.0
 30
0.0
  9
$PUCSORTHOREF
  2

  9
$PUCSORTHOVIEW
 70
     0
  9
$PUCSORGTOP
 10
0.0
 20
0.0
 30
0.0
  9
$PUCSORGBOTTOM
 10
0.0
 20
0.0
 30
0.0
  9
$PUCSORGLEFT
 10
0.0
 20
0.0
 30
0.0
  9
$PUCSORGRIGHT
 10
0.0
 20
0.0
 30
0.0
  9
$PUCSORGFRONT
 10
0.0
 20
0.0
 30
0.0
  9
$PUCSORGBACK
 10
0.0
 20
0.0
 30
0.0
  9
$USERI1
 70
     0
  9
$USERI2
 70
     0
  9
$USERI3
 70
     0
  9
$USERI4
 70
     0
  9
$USERI5
 70
     0
  9
$USERR1
 40
0.0
  9
$USERR2
 40
0.0
  9
$USERR3
 40
0.0
  9
$USERR4
 40
0.0
  9
$USERR5
 40
0.0
  9
$WORLDVIEW
 70
     1
  9
$SHADEDGE
 70
     3
  9
$SHADEDIF
 70
    70
  9
$TILEMODE
 70
     1
  9
$MAXACTVP
 70
    64
  9
$PINSBASE
 10
0.0
 20
0.0
 30
0.0
  9
$PLIMCHECK
 70
     0
  9
$PEXTMIN
 10
0.0
 20
0.0
 30
0.0
  9
$PEXTMAX
 10
0.0
 20
0.0
 30
0.0
  9
$PLIMMIN
 10
0.0
 20
0.0
  9
$PLIMMAX
 10
12.0
 20
9.0
  9
$UNITMODE
 70
     0
  9
$VISRETAIN
 70
     1
  9
$PLINEGEN
 70
     0
  9
$PSLTSCALE
 70
     1
  9
$TREEDEPTH
 70
  3020
  9
$CMLSTYLE
  2
Standard
  9
$CMLJUST
 70
     0
  9
$CMLSCALE
 40
20.0
  9
$PROXYGRAPHICS
 70
     1
  9
$MEASUREMENT
 70
     1
  9
$CELWEIGHT
370
    -3
  9
$ENDCAPS
280
     0
  9
$JOINSTYLE
280
     0
  9
$LWDISPLAY
290
     0
  9
$INSUNITS
 70
     4
  9
$HYPERLINKBASE
  1

  9
$STYLESHEET
  1
acad.ctb
  9
$XEDIT
290
     1
  9
$CEPSNTYPE
380
     0
  9
$PSTYLEMODE
290
     1
  9
$FINGERPRINTGUID
  2
{2A27A584-47B4-4AEF-A5CE-5C52866A6B65}
  9
$VERSIONGUID
  2
{B626C4C0-74AF-984A-9ED4-A94B1CECCB3B}
  9
$EXTNAMES
290
     1
  9
$PSVPSCALE
 40
1.199999999999999
  9
$OLESTARTUP
290
     0
  9
$SORTENTS
280
   127
  9
$INDEXCTL
280
     0
  9
$HIDETEXT
280
     1
  9
$XCLIPFRAME
280
     2
  9
$HALOGAP
280
     0
  9
$OBSCOLOR
 70
   257
  9
$OBSLTYPE
280
     0
  9
$INTERSECTIONDISPLAY
280
     0
  9
$INTERSECTIONCOLOR
 70
   257
  9
$DIMASSOC
280
     2
  9
$PROJECTNAME
  1

  9
$CAMERADISPLAY
290
     0
  9
$LENSLENGTH
 40
50.0
  9
$CAMERAHEIGHT
 40
0.0
  9
$STEPSPERSEC
 40
2.0
  9
$STEPSIZE
 40
6.0
  9
$3DDWFPREC
 40
2.0
  9
$PSOLWIDTH
 40
0.25
  9
$PSOLHEIGHT
 40
4.0
  9
$LOFTANG1
 40
1.570796326794896
  9
$LOFTANG2
 40
1.570796326794896
  9
$LOFTMAG1
 40
0.0
  9
$LOFTMAG2
 40
0.0
  9
$LOFTPARAM
 70
     7
  9
$LOFTNORMALS
280
     1
  9
$LATITUDE
 40
37.795
  9
$LONGITUDE
 40
-122.394
  9
$NORTHDIRECTION
 40
0.0
  9
$TIMEZONE
 70
 -8000
  9
$LIGHTGLYPHDISPLAY
280
     1
  9
$TILEMODELIGHTSYNCH
280
     1
  9
$CMATERIAL
347
56CA2
  9
$SOLIDHIST
280
     0
  9
$SHOWHIST
280
     1
  9
$DWFFRAME
280
     2
  9
$DGNFRAME
280
     0
  9
$REALWORLDSCALE
290
     1
  9
$INTERFERECOLOR
 62
     1
  9
$INTERFEREOBJVS
345
56CAF
  9
$INTERFEREVPVS
346
6827B
  9
$CSHADOW
280
     0
  9
$SHADOWPLANELOCATION
 40
0.0
  0
ENDSEC
  0
SECTION
  2
CLASSES
  0
CLASS
  1
ACDBDICTIONARYWDFLT
  2
AcDbDictionaryWithDefault
  3
ObjectDBX Classes
 90
        0
 91
        1
280
     0
281
     0
  0
CLASS
  1
DICTIONARYVAR
  2
AcDbDictionaryVar
  3
ObjectDBX Classes
 90
        0
 91
       13
280
     0
281
     0
  0
CLASS
  1
DIMASSOC
  2
AcDbDimAssoc
  3
"AcDbDimAssoc|Product Desc:     AcDim ARX App For Dimension|Company:          Autodesk, Inc.|WEB Address:      www.autodesk.com"
 90
        0
 91
        0
280
     0
281
     0
  0
CLASS
  1
SORTENTSTABLE
  2
AcDbSortentsTable
  3
ObjectDBX Classes
 90
        0
 91
        1
280
     0
281
     0
  0
CLASS
  1
PLOTSETTINGS
  2
AcDbPlotSettings
  3
ObjectDBX Classes
 90
        0
 91
        0
280
     0
281
     0
  0
CLASS
  1
MATERIAL
  2
AcDbMaterial
  3
ObjectDBX Classes
 90
     1153
 91
        3
280
     0
281
     0
  0
CLASS
  1
VISUALSTYLE
  2
AcDbVisualStyle
  3
ObjectDBX Classes
 90
     4095
 91
       26
280
     0
281
     0
  0
CLASS
  1
TABLESTYLE
  2
AcDbTableStyle
  3
ObjectDBX Classes
 90
     4095
 91
        1
280
     0
281
     0
  0
CLASS
  1
EXACXREFPANELOBJECT
  2
ExAcXREFPanelObject
  3
EXAC_ESW
 90
     1025
 91
        0
280
     0
281
     0
  0
CLASS
  1
NPOCOLLECTION
  2
AcDbImpNonPersistentObjectsCollection
  3
ObjectDBX Classes
 90
     1153
 91
        0
280
     0
281
     0
  0
CLASS
  1
SCALE
  2
AcDbScale
  3
ObjectDBX Classes
 90
     1153
 91
       17
280
     0
281
     0
  0
CLASS
  1
MLEADERSTYLE
  2
AcDbMLeaderStyle
  3
ACDB_MLEADERSTYLE_CLASS
 90
     4095
 91
        1
280
     0
281
     0
  0
CLASS
  1
ACDBSECTIONVIEWSTYLE
  2
AcDbSectionViewStyle
  3
ObjectDBX Classes
 90
     1025
 91
        1
280
     0
281
     0
  0
CLASS
  1
ACDBDETAILVIEWSTYLE
  2
AcDbDetailViewStyle
  3
ObjectDBX Classes
 90
     1025
 91
        1
280
     0
281
     0
  0
CLASS
  1
CELLSTYLEMAP
  2
AcDbCellStyleMap
  3
ObjectDBX Classes
 90
     1152
 91
        1
280
     0
281
     0
  0
ENDSEC
  0
SECTION
  2
TABLES
  0
TABLE
  2
VPORT
  5
8
102
{ACAD_XDICTIONARY
360
68265
102
}
330
0
100
AcDbSymbolTable
 70
     1
1001
ACAD
1000
DbSaveVer
1071
      224
  0
VPORT
  5
56CA0
330
8
100
AcDbSymbolTableRecord
100
AcDbViewportTableRecord
  2
*Active
 70
     0
 10
0.0
 20
0.0
 11
1.0
 21
1.0
 12
18509.83915373857
 22
-7165.362747023734
 13
0.0
 23
0.0
 14
10.0
 24
10.0
 15
10.0
 25
10.0
 16
0.0
 26
0.0
 36
1.0
 17
0.0
 27
0.0
 37
0.0
 40
847.2178682035012
 41
1.865407319952774
 42
50.0
 43
0.0
 44
0.0
 50
0.0
 51
0.0
 71
     0
 72
 20000
 73
     1
 74
     3
 75
     0
 76
     0
 77
     0
 78
     1
281
     0
 65
     1
110
0.0
120
0.0
130
0.0
111
1.0
121
0.0
131
0.0
112
0.0
122
1.0
132
0.0
 79
     0
146
0.0
348
56CAB
 60
     3
 61
     5
292
     1
282
     1
141
0.0
142
0.0
 63
   250
421
  3355443
1001
ACAD_NAV_VCDISPLAY
1070
     3
  0
ENDTAB
  0
TABLE
  2
LTYPE
  5
5
330
0
100
AcDbSymbolTable
 70
     1
  0
LTYPE
  5
14
330
5
100
AcDbSymbolTableRecord
100
AcDbLinetypeTableRecord
  2
ByBlock
 70
     0
  3

 72
    65
 73
     0
 40
0.0
  0
LTYPE
  5
15
330
5
100
AcDbSymbolTableRecord
100
AcDbLinetypeTableRecord
  2
ByLayer
 70
     0
  3

 72
    65
 73
     0
 40
0.0
  0
LTYPE
  5
16
330
5
100
AcDbSymbolTableRecord
100
AcDbLinetypeTableRecord
  2
Continuous
 70
     0
  3
Solid line
 72
    65
 73
     0
 40
0.0
  0
ENDTAB
  0
TABLE
  2
LAYER
  5
2
102
{ACAD_XDICTIONARY
360
6588
102
}
330
0
100
AcDbSymbolTable
 70
     2
  0
LAYER
  5
10
102
{ACAD_XDICTIONARY
360
682A7
102
}
330
2
100
AcDbSymbolTableRecord
100
AcDbLayerTableRecord
  2
0
 70
     0
 62
     7
  6
Continuous
370
    -3
390
F
347
56CA4
348
0
  0
LAYER
  5
7CA9
330
2
100
AcDbSymbolTableRecord
100
AcDbLayerTableRecord
  2
Defpoints
 70
     0
 62
    -7
  6
Continuous
290
     0
370
    -3
390
F
347
56CA4
348
0
  0
ENDTAB
  0
TABLE
  2
STYLE
  5
3
330
0
100
AcDbSymbolTable
 70
     3
  0
STYLE
  5
11
330
3
100
AcDbSymbolTableRecord
100
AcDbTextStyleTableRecord
  2
Standard
 70
     0
 40
0.0
 41
1.0
 50
0.0
 71
     0
 42
2.5
  3
txt
  4

  0
STYLE
  5
49
330
3
100
AcDbSymbolTableRecord
100
AcDbTextStyleTableRecord
  2
样式 2
 70
     0
 40
0.0
 41
1.0
 50
0.0
 71
     0
 42
2.5
  3
SimSun.ttf
  4

1001
ACAD
1000
SimSun
1071
    34306
1001
AcadStringInfo
1000
MIFCodePage
1070
     5
  0
STYLE
  5
916D
330
3
100
AcDbSymbolTableRecord
100
AcDbTextStyleTableRecord
  2
样式 1
 70
     0
 40
0.0
 41
1.0
 50
0.0
 71
     0
 42
2.5
  3
SimSun.ttf
  4

1001
ACAD
1000
SimSun
1071
    34306
1001
AcadStringInfo
1000
MIFCodePage
1070
     5
  0
ENDTAB
  0
TABLE
  2
VIEW
  5
6
330
0
100
AcDbSymbolTable
 70
     0
  0
ENDTAB
  0
TABLE
  2
UCS
  5
7
330
0
100
AcDbSymbolTable
 70
     0
  0
ENDTAB
  0
TABLE
  2
APPID
  5
9
330
0
100
AcDbSymbolTable
 70
     6
  0
APPID
  5
12
330
9
100
AcDbSymbolTableRecord
100
AcDbRegAppTableRecord
  2
ACAD
 70
     0
  0
APPID
  5
499C
330
9
100
AcDbSymbolTableRecord
100
AcDbRegAppTableRecord
  2
DCO15
 70
     0
  0
APPID
  5
6587
330
9
100
AcDbSymbolTableRecord
100
AcDbRegAppTableRecord
  2
ACAD_PSEXT
 70
     0
  0
APPID
  5
5BCA7
330
9
100
AcDbSymbolTableRecord
100
AcDbRegAppTableRecord
  2
ACAD_EXEMPT_FROM_CAD_STANDARDS
 70
     0
  0
APPID
  5
68285
330
9
100
AcDbSymbolTableRecord
100
AcDbRegAppTableRecord
  2
AcadStringInfo
 70
     0
  0
APPID
  5
682B0
330
9
100
AcDbSymbolTableRecord
100
AcDbRegAppTableRecord
  2
ACAD_NAV_VCDISPLAY
 70
     0
  0
ENDTAB
  0
TABLE
  2
DIMSTYLE
  5
A
330
0
100
AcDbSymbolTable
 70
     2
100
AcDbDimStyleTable
 71
     1
340
916E
  0
DIMSTYLE
105
916E
330
A
100
AcDbSymbolTableRecord
100
AcDbDimStyleTableRecord
  2
尺寸标注
 70
     0
 40
2.5
 41
2.5
 42
0.625
 43
3.75
 44
1.25
 73
     0
 74
     0
 77
     1
 78
     8
140
3.0
141
0.0
143
0.03937007874016
147
0.625
171
     3
172
     1
271
     0
272
     0
274
     3
283
     0
284
     8
340
916D
1001
AcadStringInfo
1000
MIFCodePage
1070
     5
  0
DIMSTYLE
105
ABC6
330
A
100
AcDbSymbolTableRecord
100
AcDbDimStyleTableRecord
  2
STANDARD
 70
     0
 41
0.1875
 47
0.01
 48
0.01
 78
     4
140
0.15625
271
     2
272
     2
284
     4
340
11
  0
ENDTAB
  0
TABLE
  2
BLOCK_RECORD
  5
1
330
0
100
AcDbSymbolTable
 70
     0
  0
BLOCK_RECORD
  5
1F
102
{ACAD_XDICTIONARY
360
25F1
102
}
330
1
100
AcDbSymbolTableRecord
100
AcDbBlockTableRecord
  2
*Model_Space
340
22
 70
     0
280
     1
281
     0
  0
BLOCK_RECORD
  5
682A2
330
1
100
AcDbSymbolTableRecord
100
AcDbBlockTableRecord
  2
*Paper_Space
340
682A3
 70
     0
280
     1
281
     0
  0
ENDTAB
  0
ENDSEC
  0
SECTION
  2
BLOCKS
  0
BLOCK
  5
20
330
1F
100
AcDbEntity
  8
0
100
AcDbBlockBegin
  2
*Model_Space
 70
     0
 10
0.0
 20
0.0
 30
0.0
  3
*Model_Space
  1

  0
ENDBLK
  5
21
330
1F
100
AcDbEntity
  8
0
100
AcDbBlockEnd
  0
BLOCK
  5
682A4
330
682A2
100
AcDbEntity
 67
     1
  8
0
370
    -3
100
AcDbBlockBegin
  2
*Paper_Space
 70
     0
 10
0.0
 20
0.0
 30
0.0
  3
*Paper_Space
  1

  0
ENDBLK
  5
682A5
330
682A2
100
AcDbEntity
 67
     1
  8
0
370
    -3
100
AcDbBlockEnd
  0
ENDSEC
  0
SECTION
  2
ENTITIES
  0
TEXT
  5
6510
330
1F
100
AcDbEntity
  8
0
100
AcDbText
 10
261.9526138107142
 20
17.95833574806397
 30
0.0
 40
5.0
  1

  7
样式 2
100
AcDbText
  0
LINE
  5
67E49
330
1F
100
AcDbEntity
  8
0
370
    -3
100
AcDbLine
 10
18708.07432081902
 20
-7394.35459135845
 30
0.0
 11
18708.07432081902
 21
-7404.354591358449
 31
0.0
  0
LINE
  5
67E4A
330
1F
100
AcDbEntity
  8
0
370
    -3
100
AcDbLine
 10
18703.07432081902
 20
-7269.35459135845
 30
0.0
 11
18703.07432081902
 21
-7355.35459135845
 31
0.0
  0
LINE
  5
67E4B
330
1F
100
AcDbEntity
  8
0
370
    -3
100
AcDbLine
 10
18703.07432081902
 20
-7355.35459135845
 30
0.0
 11
18703.07432081902
 21
-7394.35459135845
 31
0.0
  0
LINE
  5
67E4C
330
1F
100
AcDbEntity
  8
0
370
    -3
100
AcDbLine
 10
18708.07432081902
 20
-7404.354591358449
 30
0.0
 11
18653.07432081902
 21
-7404.354591358449
 31
0.0
  0
LINE
  5
67E4D
330
1F
100
AcDbEntity
  8
0
370
    -3
100
AcDbLine
 10
18708.07432081902
 20
-7394.35459135845
 30
0.0
 11
18653.07432081902
 21
-7394.35459135845
 31
0.0
  0
LINE
  5
67E4E
330
1F
100
AcDbEntity
  8
0
370
    -3
100
AcDbLine
 10
18658.07432081902
 20
-7320.354591358449
 30
0.0
 11
18658.07432081902
 21
-7335.73712673475
 31
0.0
  0
LINE
  5
67E4F
330
1F
100
AcDbEntity
  8
0
370
    -3
100
AcDbLine
 10
18658.07432081902
 20
-7340.239869684049
 30
0.0
 11
18658.07432081902
 21
-7355.35459135845
 31
0.0
  0
LINE
  5
67E50
330
1F
100
AcDbEntity
  8
0
370
    -3
100
AcDbLine
 10
18658.07432081902
 20
-7355.35459135845
 30
0.0
 11
18658.07432081902
 21
-7394.35459135845
 31
0.0
  0
LINE
  5
67E51
330
1F
100
AcDbEntity
  8
0
370
    -3
100
AcDbLine
 10
18653.07432081902
 20
-7394.35459135845
 30
0.0
 11
18653.07432081902
 21
-7404.354591358449
 31
0.0
  0
LINE
  5
67E52
330
1F
100
AcDbEntity
  8
0
370
    -3
100
AcDbLine
 10
18703.07432081902
 20
-7355.35459135845
 30
0.0
 11
18658.07432081902
 21
-7355.35459135845
 31
0.0
  0
LINE
  5
67E53
330
1F
100
AcDbEntity
  8
0
370
    -3
100
AcDbLine
 10
18512.41556756131
 20
-7286.031572082449
 30
0.0
 11
18524.73606929021
 21
-7287.76310567935
 31
0.0
  0
LINE
  5
67E54
330
1F
100
AcDbEntity
  8
0
370
    -3
100
AcDbLine
 10
18517.11862133282
 20
-7285.68271561265
 30
0.0
 11
18523.60148399092
 21
-7286.59382254185
 31
0.0
  0
LINE
  5
67E55
330
1F
100
AcDbEntity
  8
0
370
    -3
100
AcDbLine
 10
18619.07432081902
 20
-7288.35459135845
 30
0.0
 11
18528.94470858232
 21
-7288.35459135845
 31
0.0
  0
LINE
  5
67E56
330
1F
100
AcDbEntity
  8
0
370
    -3
100
AcDbLine
 10
18703.07432081902
 20
-7269.35459135845
 30
0.0
 11
18619.07432080021
 21
-7269.35459135845
 31
0.0
  0
LINE
  5
67E57
330
1F
100
AcDbEntity
  8
0
370
    -3
100
AcDbLine
 10
18619.07432080021
 20
-7269.35459135845
 30
0.0
 11
18493.13089928044
 21
-7269.35459135845
 31
0.0
  0
ARC
  5
67E58
330
1F
100
AcDbEntity
  8
0
370
    -3
100
AcDbCircle
 10
18493.13089928044
 20
-7269.854591358451
 30
0.0
 40
0.5
100
AcDbArc
 50
90.0
 51
186.1303551476033
  0
LINE
  5
67E59
330
1F
100
AcDbEntity
  8
0
370
    -3
100
AcDbLine
 10
18524.73606929021
 20
-7287.76310567935
 30
0.0
 11
18525.41373399202
 21
-7287.25244869875
 31
0.0
  0
LINE
  5
67E5A
330
1F
100
AcDbEntity
  8
0
370
    -3
100
AcDbLine
 10
18525.53951855802
 20
-7287.15766322955
 30
0.0
 11
18525.41373399202
 21
-7287.25244869875
 31
0.0
  0
LINE
  5
67E5B
330
1F
100
AcDbEntity
  8
0
370
    -3
100
AcDbLine
 10
18492.64729912252
 20
-7270.03405716365
 30
0.0
 11
18492.63375852736
 21
-7269.907986785414
 31
0.0
  0
LINE
  5
67E5C
330
1F
100
AcDbEntity
  8
0
370
    -3
100
AcDbLine
 10
18014.93867412984
 20
-7394.35459135845
 30
0.0
 11
18014.93867412984
 21
-7404.354591358449
 31
0.0
  0
LINE
  5
67E5D
330
1F
100
AcDbEntity
  8
0
370
    -3
100
AcDbLine
 10
18019.93867412984
 20
-7355.35459135845
 30
0.0
 11
18019.93867412984
 21
-7394.35459135845
 31
0.0
  0
LINE
  5
67E5E
330
1F
100
AcDbEntity
  8
0
370
    -3
100
AcDbLine
 10
18064.93867412984
 20
-7355.35459135845
 30
0.0
 11
18064.93867412984
 21
-7394.35459135845
 31
0.0
  0
LINE
  5
67E5F
330
1F
100
AcDbEntity
  8
0
370
    -3
100
AcDbLine
 10
18069.93867412984
 20
-7394.35459135845
 30
0.0
 11
18069.93867412984
 21
-7404.354591358449
 31
0.0
  0
LINE
  5
67E60
330
1F
100
AcDbEntity
  8
0
370
    -3
100
AcDbLine
 10
18314.93867412984
 20
-7404.354591358449
 30
0.0
 11
18369.93867412984
 21
-7404.354591358449
 31
0.0
  0
LINE
  5
67E61
330
1F
100
AcDbEntity
  8
0
370
    -3
100
AcDbLine
 10
18219.93867412984
 20
-7404.354591358449
 30
0.0
 11
18164.93867412984
 21
-7404.354591358449
 31
0.0
  0
LINE
  5
67E62
330
1F
100
AcDbEntity
  8
0
370
    -3
100
AcDbLine
 10
18069.93867412984
 20
-7404.354591358449
 30
0.0
 11
18014.93867412984
 21
-7404.354591358449
 31
0.0
  0
LINE
  5
67E63
330
1F
100
AcDbEntity
  8
0
370
    -3
100
AcDbLine
 10
18219.93867412984
 20
-7399.354591358449
 30
0.0
 11
18164.93867412984
 21
-7399.354591358449
 31
0.0
  0
LINE
  5
67E64
330
1F
100
AcDbEntity
  8
0
370
    -3
100
AcDbLine
 10
18314.93867412984
 20
-7394.35459135845
 30
0.0
 11
18369.93867412984
 21
-7394.35459135845
 31
0.0
  0
LINE
  5
67E65
330
1F
100
AcDbEntity
  8
0
370
    -3
100
AcDbLine
 10
18069.93867412984
 20
-7394.35459135845
 30
0.0
 11
18014.93867412984
 21
-7394.35459135845
 31
0.0
  0
LINE
  5
67E66
330
1F
100
AcDbEntity
  8
0
370
    -3
100
AcDbLine
 10
18200.70164424844
 20
-7286.47052278115
 30
0.0
 11
18200.35927319315
 21
-7286.806196901951
 31
0.0
  0
LINE
  5
67E67
330
1F
100
AcDbEntity
  8
0
370
    -3
100
AcDbLine
 10
18164.93867412984
 20
-7399.354591358449
 30
0.0
 11
18164.93867412984
 21
-7404.354591358449
 31
0.0
  0
LINE
  5
67E68
330
1F
100
AcDbEntity
  8
0
370
    -3
100
AcDbLine
 10
18169.93867412984
 20
-7269.35459135845
 30
0.0
 11
18169.93867412984
 21
-7399.354591358449
 31
0.0
  0
LINE
  5
67E69
330
1F
100
AcDbEntity
  8
0
370
    -3
100
AcDbLine
 10
18185.43497117585
 20
-7286.48055528225
 30
0.0
 11
18185.43497117585
 21
-7286.593642637249
 31
0.0
  0
LINE
  5
67E6A
330
1F
100
AcDbEntity
  8
0
370
    -3
100
AcDbLine
 10
18185.53867412984
 20
-7286.58530993615
 30
0.0
 11
18185.53867412984
 21
-7286.488887983449
 31
0.0
  0
LINE
  5
67E6B
330
1F
100
AcDbEntity
  8
0
370
    -3
100
AcDbLine
 10
18185.83867412984
 20
-7286.488887983449
 30
0.0
 11
18185.83867412984
 21
-7286.58530993615
 31
0.0
  0
LINE
  5
67E6C
330
1F
100
AcDbEntity
  8
0
370
    -3
100
AcDbLine
 10
18186.43867412984
 20
-7286.633520912549
 30
0.0
 11
18186.43867412984
 21
-7286.45243192215
 31
0.0
  0
LINE
  5
67E6D
330
1F
100
AcDbEntity
  8
0
370
    -3
100
AcDbLine
 10
18186.53867412984
 20
-7286.807481268249
 30
0.0
 11
18186.53867412984
 21
-7286.729942865349
 31
0.0
  0
LINE
  5
67E6E
330
1F
100
AcDbEntity
  8
0
370
    -3
100
AcDbLine
 10
18186.83867412984
 20
-7286.729942865349
 30
0.0
 11
18186.83867412984
 21
-7286.82636481805
 31
0.0
  0
LINE
  5
67E6F
330
1F
100
AcDbEntity
  8
0
370
    -3
100
AcDbLine
 10
18187.03867412984
 20
-7286.58530993615
 30
0.0
 11
18187.03867412984
 21
-7286.488887983449
 31
0.0
  0
LINE
  5
67E70
330
1F
100
AcDbEntity
  8
0
370
    -3
100
AcDbLine
 10
18187.33867412984
 20
-7286.488887983449
 30
0.0
 11
18187.33867412984
 21
-7286.58530993615
 31
0.0
  0
LINE
  5
67E71
330
1F
100
AcDbEntity
  8
0
370
    -3
100
AcDbLine
 10
18187.43867412984
 20
-7286.874575794449
 30
0.0
 11
18187.43867412984
 21
-7286.68173188895
 31
0.0
  0
LINE
  5
67E72
330
1F
100
AcDbEntity
  8
0
370
    -3
100
AcDbLine
 10
18187.93867412984
 20
-7286.633520912549
 30
0.0
 11
18187.93867412984
 21
-7286.44067700705
 31
0.0
  0
LINE
  5
67E73
330
1F
100
AcDbEntity
  8
0
370
    -3
100
AcDbLine
 10
18188.03867412984
 20
-7286.82636481805
 30
0.0
 11
18188.03867412984
 21
-7286.729942865349
 31
0.0
  0
LINE
  5
67E74
330
1F
100
AcDbEntity
  8
0
370
    -3
100
AcDbLine
 10
18188.33867412984
 20
-7286.729942865349
 30
0.0
 11
18188.33867412984
 21
-7286.82636481805
 31
0.0
  0
LINE
  5
67E75
330
1F
100
AcDbEntity
  8
0
370
    -3
100
AcDbLine
 10
18188.53867412984
 20
-7287.02768189915
 30
0.0
 11
18188.53867412984
 21
-7286.970426912749
 31
0.0
  0
LINE
  5
67E76
330
1F
100
AcDbEntity
  8
0
370
    -3
100
AcDbLine
 10
18188.53867412984
 20
-7286.58530993615
 30
0.0
 11
18188.53867412984
 21
-7286.488887983449
 31
0.0
  0
LINE
  5
67E77
330
1F
100
AcDbEntity
  8
0
370
    -3
100
AcDbLine
 10
18188.83867412984
 20
-7286.970426912749
 30
0.0
 11
18188.83867412984
 21
-7287.049844456349
 31
0.0
  0
LINE
  5
67E78
330
1F
100
AcDbEntity
  8
0
370
    -3
100
AcDbLine
 10
18188.93867412984
 20
-7286.874575794449
 30
0.0
 11
18188.93867412984
 21
-7286.68173188895
 31
0.0
  0
LINE
  5
67E79
330
1F
100
AcDbEntity
  8
0
370
    -3
100
AcDbLine
 10
18189.53867412984
 20
-7286.82636481805
 30
0.0
 11
18189.53867412984
 21
-7286.729942865349
 31
0.0
  0
LINE
  5
67E7A
330
1F
100
AcDbEntity
  8
0
370
    -3
100
AcDbLine
 10
18189.64220060495
 20
-7286.938569619849
 30
0.0
 11
18189.64220060495
 21
-7287.09870615845
 31
0.0
  0
LINE
  5
67E7B
330
1F
100
AcDbEntity
  8
0
370
    -3
100
AcDbLine
 10
18189.83867412984
 20
-7286.729942865349
 30
0.0
 11
18189.83867412984
 21
-7286.82636481805
 31
0.0
  0
LINE
  5
67E7C
330
1F
100
AcDbEntity
  8
0
370
    -3
100
AcDbLine
 10
18190.03867412984
 20
-7287.066848865449
 30
0.0
 11
18190.03867412984
 21
-7286.970426912749
 31
0.0
  0
LINE
  5
67E7D
330
1F
100
AcDbEntity
  8
0
370
    -3
100
AcDbLine
 10
18190.33867412984
 20
-7286.488887983449
 30
0.0
 11
18190.33867412984
 21
-7286.58530993615
 31
0.0
  0
LINE
  5
67E7E
330
1F
100
AcDbEntity
  8
0
370
    -3
100
AcDbLine
 10
18190.33867412984
 20
-7286.970426912749
 30
0.0
 11
18190.33867412984
 21
-7287.066848865449
 31
0.0
  0
LINE
  5
67E7F
330
1F
100
AcDbEntity
  8
0
370
    -3
100
AcDbLine
 10
18190.43867412984
 20
-7286.874575794449
 30
0.0
 11
18190.43867412984
 21
-7286.68173188895
 31
0.0
  0
LINE
  5
67E80
330
1F
100
AcDbEntity
  8
0
370
    -3
100
AcDbLine
 10
18190.43867412984
 20
-7286.393036865149
 30
0.0
 11
18190.43867412984
 21
-7286.32115087555
 31
0.0
  0
LINE
  5
67E81
330
1F
100
AcDbEntity
  8
0
370
    -3
100
AcDbLine
 10
18190.93867412984
 20
-7287.115059841849
 30
0.0
 11
18190.93867412984
 21
-7286.92221593635
 31
0.0
  0
LINE
  5
67E82
330
1F
100
AcDbEntity
  8
0
370
    -3
100
AcDbLine
 10
18190.93867412984
 20
-7286.633520912549
 30
0.0
 11
18190.93867412984
 21
-7286.44067700705
 31
0.0
  0
LINE
  5
67E83
330
1F
100
AcDbEntity
  8
0
370
    -3
100
AcDbLine
 10
18191.03867412984
 20
-7286.82636481805
 30
0.0
 11
18191.03867412984
 21
-7286.729942865349
 31
0.0
  0
LINE
  5
67E84
330
1F
100
AcDbEntity
  8
0
370
    -3
100
AcDbLine
 10
18191.33867412984
 20
-7286.31008947975
 30
0.0
 11
18191.33867412984
 21
-7286.344825888749
 31
0.0
  0
LINE
  5
67E85
330
1F
100
AcDbEntity
  8
0
370
    -3
100
AcDbLine
 10
18191.33867412984
 20
-7286.729942865349
 30
0.0
 11
18191.33867412984
 21
-7286.82636481805
 31
0.0
  0
LINE
  5
67E86
330
1F
100
AcDbEntity
  8
0
370
    -3
100
AcDbLine
 10
18191.53867412985
 20
-7287.066848865449
 30
0.0
 11
18191.53867412985
 21
-7286.970426912749
 31
0.0
  0
LINE
  5
67E87
330
1F
100
AcDbEntity
  8
0
370
    -3
100
AcDbLine
 10
18191.53867412985
 20
-7286.58530993615
 30
0.0
 11
18191.53867412985
 21
-7286.488887983449
 31
0.0
  0
LINE
  5
67E88
330
1F
100
AcDbEntity
  8
0
370
    -3
100
AcDbLine
 10
18191.83867412984
 20
-7286.488887983449
 30
0.0
 11
18191.83867412984
 21
-7286.58530993615
 31
0.0
  0
LINE
  5
67E89
330
1F
100
AcDbEntity
  8
0
370
    -3
100
AcDbLine
 10
18191.83867412984
 20
-7286.970426912749
 30
0.0
 11
18191.83867412984
 21
-7287.066848865449
 31
0.0
  0
LINE
  5
67E8A
330
1F
100
AcDbEntity
  8
0
370
    -3
100
AcDbLine
 10
18191.93867412984
 20
-7286.874575794449
 30
0.0
 11
18191.93867412984
 21
-7286.68173188895
 31
0.0
  0
LINE
  5
67E8B
330
1F
100
AcDbEntity
  8
0
370
    -3
100
AcDbLine
 10
18191.93867412984
 20
-7286.393036865149
 30
0.0
 11
18191.93867412984
 21
-7286.30271521585
 31
0.0
  0
LINE
  5
67E8C
330
1F
100
AcDbEntity
  8
0
370
    -3
100
AcDbLine
 10
18192.43867412984
 20
-7287.115059841849
 30
0.0
 11
18192.43867412984
 21
-7286.92221593635
 31
0.0
  0
LINE
  5
67E8D
330
1F
100
AcDbEntity
  8
0
370
    -3
100
AcDbLine
 10
18192.43867412984
 20
-7286.633520912549
 30
0.0
 11
18192.43867412984
 21
-7286.44067700705
 31
0.0
  0
LINE
  5
67E8E
330
1F
100
AcDbEntity
  8
0
370
    -3
100
AcDbLine
 10
18192.53867412984
 20
-7286.82636481805
 30
0.0
 11
18192.53867412984
 21
-7286.729942865349
 31
0.0
  0
LINE
  5
67E8F
330
1F
100
AcDbEntity
  8
0
370
    -3
100
AcDbLine
 10
18192.53867412984
 20
-7286.344825888749
 30
0.0
 11
18192.53867412984
 21
-7286.297893093849
 31
0.0
  0
LINE
  5
67E90
330
1F
100
AcDbEntity
  8
0
370
    -3
100
AcDbLine
 10
18192.83867412984
 20
-7286.30186238755
 30
0.0
 11
18192.83867412984
 21
-7286.344825888749
 31
0.0
  0
LINE
  5
67E91
330
1F
100
AcDbEntity
  8
0
370
    -3
100
AcDbLine
 10
18192.83867412984
 20
-7286.729942865349
 30
0.0
 11
18192.83867412984
 21
-7286.82636481805
 31
0.0
  0
LINE
  5
67E92
330
1F
100
AcDbEntity
  8
0
370
    -3
100
AcDbLine
 10
18193.03867412984
 20
-7287.066848865449
 30
0.0
 11
18193.03867412984
 21
-7286.970426912749
 31
0.0
  0
LINE
  5
67E93
330
1F
100
AcDbEntity
  8
0
370
    -3
100
AcDbLine
 10
18193.03867412984
 20
-7286.58530993615
 30
0.0
 11
18193.03867412984
 21
-7286.488887983449
 31
0.0
  0
LINE
  5
67E94
330
1F
100
AcDbEntity
  8
0
370
    -3
100
AcDbLine
 10
18193.33867412984
 20
-7286.488887983449
 30
0.0
 11
18193.33867412984
 21
-7286.58530993615
 31
0.0
  0
LINE
  5
67E95
330
1F
100
AcDbEntity
  8
0
370
    -3
100
AcDbLine
 10
18193.33867412984
 20
-7286.970426912749
 30
0.0
 11
18193.33867412984
 21
-7287.066848865449
 31
0.0
  0
LINE
  5
67E96
330
1F
100
AcDbEntity
  8
0
370
    -3
100
AcDbLine
 10
18193.43867412984
 20
-7286.874575794449
 30
0.0
 11
18193.43867412984
 21
-7286.68173188895
 31
0.0
  0
LINE
  5
67E97
330
1F
100
AcDbEntity
  8
0
370
    -3
100
AcDbLine
 10
18193.43867412984
 20
-7286.393036865149
 30
0.0
 11
18193.43867412984
 21
-7286.309800974949
 31
0.0
  0
LINE
  5
67E98
330
1F
100
AcDbEntity
  8
0
370
    -3
100
AcDbLine
 10
18193.93867412984
 20
-7287.115059841849
 30
0.0
 11
18193.93867412984
 21
-7286.92221593635
 31
0.0
  0
LINE
  5
67E99
330
1F
100
AcDbEntity
  8
0
370
    -3
100
AcDbLine
 10
18193.93867412984
 20
-7286.633520912549
 30
0.0
 11
18193.93867412984
 21
-7286.44067700705
 31
0.0
  0
LINE
  5
67E9A
330
1F
100
AcDbEntity
  8
0
370
    -3
100
AcDbLine
 10
18194.03867412984
 20
-7286.82636481805
 30
0.0
 11
18194.03867412984
 21
-7286.729942865349
 31
0.0
  0
LINE
  5
67E9B
330
1F
100
AcDbEntity
  8
0
370
    -3
100
AcDbLine
 10
18194.33867412984
 20
-7286.729942865349
 30
0.0
 11
18194.33867412984
 21
-7286.82636481805
 31
0.0
  0
LINE
  5
67E9C
330
1F
100
AcDbEntity
  8
0
370
    -3
100
AcDbLine
 10
18194.53867412985
 20
-7287.066848865449
 30
0.0
 11
18194.53867412985
 21
-7286.970426912749
 31
0.0
  0
LINE
  5
67E9D
330
1F
100
AcDbEntity
  8
0
370
    -3
100
AcDbLine
 10
18194.53867412985
 20
-7286.58530993615
 30
0.0
 11
18194.53867412985
 21
-7286.488887983449
 31
0.0
  0
LINE
  5
67E9E
330
1F
100
AcDbEntity
  8
0
370
    -3
100
AcDbLine
 10
18319.93867412984
 20
-7355.35459135845
 30
0.0
 11
18364.93867412984
 21
-7355.35459135845
 31
0.0
  0
LINE
  5
67E9F
330
1F
100
AcDbEntity
  8
0
370
    -3
100
AcDbLine
 10
18064.93867412984
 20
-7355.35459135845
 30
0.0
 11
18019.93867412984
 21
-7355.35459135845
 31
0.0
  0
LINE
  5
67EA0
330
1F
100
AcDbEntity
  8
0
370
    -3
100
AcDbLine
 10
18194.83867412984
 20
-7286.488887983449
 30
0.0
 11
18194.83867412984
 21
-7286.58530993615
 31
0.0
  0
LINE
  5
67EA1
330
1F
100
AcDbEntity
  8
0
370
    -3
100
AcDbLine
 10
18194.83867412984
 20
-7286.970426912749
 30
0.0
 11
18194.83867412984
 21
-7287.066848865449
 31
0.0
  0
LINE
  5
67EA2
330
1F
100
AcDbEntity
  8
0
370
    -3
100
AcDbLine
 10
18194.93867412984
 20
-7286.874575794449
 30
0.0
 11
18194.93867412984
 21
-7286.68173188895
 31
0.0
  0
LINE
  5
67EA3
330
1F
100
AcDbEntity
  8
0
370
    -3
100
AcDbLine
 10
18194.93867412984
 20
-7286.393036865149
 30
0.0
 11
18194.93867412984
 21
-7286.335373621449
 31
0.0
  0
LINE
  5
67EA4
330
1F
100
AcDbEntity
  8
0
370
    -3
100
AcDbLine
 10
18195.23514765484
 20
-7286.938569619849
 30
0.0
 11
18195.23514765484
 21
-7287.09870615845
 31
0.0
  0
LINE
  5
67EA5
330
1F
100
AcDbEntity
  8
0
370
    -3
100
AcDbLine
 10
18195.43867412984
 20
-7286.633520912549
 30
0.0
 11
18195.43867412984
 21
-7286.44067700705
 31
0.0
  0
LINE
  5
67EA6
330
1F
100
AcDbEntity
  8
0
370
    -3
100
AcDbLine
 10
18195.53867412984
 20
-7286.82636481805
 30
0.0
 11
18195.53867412984
 21
-7286.729942865349
 31
0.0
  0
LINE
  5
67EA7
330
1F
100
AcDbEntity
  8
0
370
    -3
100
AcDbLine
 10
18195.83867412984
 20
-7286.729942865349
 30
0.0
 11
18195.83867412984
 21
-7286.82636481805
 31
0.0
  0
LINE
  5
67EA8
330
1F
100
AcDbEntity
  8
0
370
    -3
100
AcDbLine
 10
18196.03867412984
 20
-7287.049844456349
 30
0.0
 11
18196.03867412984
 21
-7286.970426912749
 31
0.0
  0
LINE
  5
67EA9
330
1F
100
AcDbEntity
  8
0
370
    -3
100
AcDbLine
 10
18196.03867412984
 20
-7286.58530993615
 30
0.0
 11
18196.03867412984
 21
-7286.488887983449
 31
0.0
  0
LINE
  5
67EAA
330
1F
100
AcDbEntity
  8
0
370
    -3
100
AcDbLine
 10
18196.33867412984
 20
-7286.488887983449
 30
0.0
 11
18196.33867412984
 21
-7286.58530993615
 31
0.0
  0
LINE
  5
67EAB
330
1F
100
AcDbEntity
  8
0
370
    -3
100
AcDbLine
 10
18196.33867412984
 20
-7286.970426912749
 30
0.0
 11
18196.33867412984
 21
-7287.02768189915
 31
0.0
  0
LINE
  5
67EAC
330
1F
100
AcDbEntity
  8
0
370
    -3
100
AcDbLine
 10
18196.43867412984
 20
-7286.874575794449
 30
0.0
 11
18196.43867412984
 21
-7286.68173188895
 31
0.0
  0
LINE
  5
67EAD
330
1F
100
AcDbEntity
  8
0
370
    -3
100
AcDbLine
 10
18196.93867412984
 20
-7286.633520912549
 30
0.0
 11
18196.93867412984
 21
-7286.44067700705
 31
0.0
  0
LINE
  5
67EAE
330
1F
100
AcDbEntity
  8
0
370
    -3
100
AcDbLine
 10
18197.03867412984
 20
-7286.82636481805
 30
0.0
 11
18197.03867412984
 21
-7286.729942865349
 31
0.0
  0
LINE
  5
67EAF
330
1F
100
AcDbEntity
  8
0
370
    -3
100
AcDbLine
 10
18197.33867412984
 20
-7286.729942865349
 30
0.0
 11
18197.33867412984
 21
-7286.82636481805
 31
0.0
  0
LINE
  5
67EB0
330
1F
100
AcDbEntity
  8
0
370
    -3
100
AcDbLine
 10
18197.53867412984
 20
-7286.58530993615
 30
0.0
 11
18197.53867412984
 21
-7286.488887983449
 31
0.0
  0
LINE
  5
67EB1
330
1F
100
AcDbEntity
  8
0
370
    -3
100
AcDbLine
 10
18197.83867412984
 20
-7286.488887983449
 30
0.0
 11
18197.83867412984
 21
-7286.58530993615
 31
0.0
  0
LINE
  5
67EB2
330
1F
100
AcDbEntity
  8
0
370
    -3
100
AcDbLine
 10
18197.88894145854
 20
-7286.685727989949
 30
0.0
 11
18197.88894145854
 21
-7286.870579693349
 31
0.0
  0
LINE
  5
67EB3
330
1F
100
AcDbEntity
  8
0
370
    -3
100
AcDbLine
 10
18198.43867412984
 20
-7286.633520912549
 30
0.0
 11
18198.43867412984
 21
-7286.452563572449
 31
0.0
  0
LINE
  5
67EB4
330
1F
100
AcDbEntity
  8
0
370
    -3
100
AcDbLine
 10
18198.53867412984
 20
-7286.77590687945
 30
0.0
 11
18198.53867412984
 21
-7286.729942865349
 31
0.0
  0
LINE
  5
67EB5
330
1F
100
AcDbEntity
  8
0
370
    -3
100
AcDbLine
 10
18199.03867412984
 20
-7286.58530993615
 30
0.0
 11
18199.03867412984
 21
-7286.488887983449
 31
0.0
  0
LINE
  5
67EB6
330
1F
100
AcDbEntity
  8
0
370
    -3
100
AcDbLine
 10
18199.33867412984
 20
-7286.488887983449
 30
0.0
 11
18199.33867412984
 21
-7286.58530993615
 31
0.0
  0
LINE
  5
67EB7
330
1F
100
AcDbEntity
  8
0
370
    -3
100
AcDbLine
 10
18199.44237708384
 20
-7286.47717825535
 30
0.0
 11
18199.44237708384
 21
-7286.593642637249
 31
0.0
  0
LINE
  5
67EB8
330
1F
100
AcDbEntity
  8
0
370
    -3
100
AcDbLine
 10
18214.93867412984
 20
-7399.354591358449
 30
0.0
 11
18214.93867412984
 21
-7269.35459135845
 31
0.0
  0
LINE
  5
67EB9
330
1F
100
AcDbEntity
  8
0
370
    -3
100
AcDbLine
 10
18219.93867412984
 20
-7399.354591358449
 30
0.0
 11
18219.93867412984
 21
-7404.354591358449
 31
0.0
  0
LINE
  5
67EBA
330
1F
100
AcDbEntity
  8
0
370
    -3
100
AcDbLine
 10
18184.17443186435
 20
-7286.46927551805
 30
0.0
 11
18184.51807506654
 21
-7286.806196901951
 31
0.0
  0
LINE
  5
67EBB
330
1F
100
AcDbEntity
  8
0
370
    -3
100
AcDbLine
 10
18196.93867412984
 20
-7286.92221593635
 30
0.0
 11
18196.33867412984
 21
-7286.970426912749
 31
0.0
  0
LINE
  5
67EBC
330
1F
100
AcDbEntity
  8
0
370
    -3
100
AcDbLine
 10
18193.93867412984
 20
-7287.115059841849
 30
0.0
 11
18194.53867412985
 21
-7287.066848865449
 31
0.0
  0
LINE
  5
67EBD
330
1F
100
AcDbEntity
  8
0
370
    -3
100
AcDbLine
 10
18196.43867412984
 20
-7286.874575794449
 30
0.0
 11
18197.03867412984
 21
-7286.82636481805
 31
0.0
  0
LINE
  5
67EBE
330
1F
100
AcDbEntity
  8
0
370
    -3
100
AcDbLine
 10
18195.43867412984
 20
-7286.92221593635
 30
0.0
 11
18194.83867412984
 21
-7286.970426912749
 31
0.0
  0
LINE
  5
67EBF
330
1F
100
AcDbEntity
  8
0
370
    -3
100
AcDbLine
 10
18197.93867412984
 20
-7286.68173188895
 30
0.0
 11
18197.33867412984
 21
-7286.729942865349
 31
0.0
  0
LINE
  5
67EC0
330
1F
100
AcDbEntity
  8
0
370
    -3
100
AcDbLine
 10
18191.89955838925
 20
-7287.166413831648
 30
0.0
 11
18191.93867412984
 21
-7287.16327081825
 31
0.0
  0
LINE
  5
67EC1
330
1F
100
AcDbEntity
  8
0
370
    -3
100
AcDbLine
 10
18198.43867412984
 20
-7286.633520912549
 30
0.0
 11
18199.03867412984
 21
-7286.58530993615
 31
0.0
  0
LINE
  5
67EC2
330
1F
100
AcDbEntity
  8
0
370
    -3
100
AcDbLine
 10
18192.43867412984
 20
-7287.115059841849
 30
0.0
 11
18193.03867412984
 21
-7287.066848865449
 31
0.0
  0
LINE
  5
67EC3
330
1F
100
AcDbEntity
  8
0
370
    -3
100
AcDbLine
 10
18194.93867412984
 20
-7286.874575794449
 30
0.0
 11
18195.53867412984
 21
-7286.82636481805
 31
0.0
  0
LINE
  5
67EC4
330
1F
100
AcDbEntity
  8
0
370
    -3
100
AcDbLine
 10
18193.93867412984
 20
-7286.92221593635
 30
0.0
 11
18193.33867412984
 21
-7286.970426912749
 31
0.0
  0
LINE
  5
67EC5
330
1F
100
AcDbEntity
  8
0
370
    -3
100
AcDbLine
 10
18196.43867412984
 20
-7286.68173188895
 30
0.0
 11
18195.83867412984
 21
-7286.729942865349
 31
0.0
  0
LINE
  5
67EC6
330
1F
100
AcDbEntity
  8
0
370
    -3
100
AcDbLine
 10
18196.93867412984
 20
-7286.633520912549
 30
0.0
 11
18197.53867412984
 21
-7286.58530993615
 31
0.0
  0
LINE
  5
67EC7
330
1F
100
AcDbEntity
  8
0
370
    -3
100
AcDbLine
 10
18190.93867412984
 20
-7287.115059841849
 30
0.0
 11
18191.53867412985
 21
-7287.066848865449
 31
0.0
  0
LINE
  5
67EC8
330
1F
100
AcDbEntity
  8
0
370
    -3
100
AcDbLine
 10
18193.43867412984
 20
-7286.874575794449
 30
0.0
 11
18194.03867412984
 21
-7286.82636481805
 31
0.0
  0
LINE
  5
67EC9
330
1F
100
AcDbEntity
  8
0
370
    -3
100
AcDbLine
 10
18198.32533435524
 20
-7286.44978404235
 30
0.0
 11
18197.83867412984
 21
-7286.488887983449
 31
0.0
  0
LINE
  5
67ECA
330
1F
100
AcDbEntity
  8
0
370
    -3
100
AcDbLine
 10
18192.43867412984
 20
-7286.92221593635
 30
0.0
 11
18191.83867412984
 21
-7286.970426912749
 31
0.0
  0
LINE
  5
67ECB
330
1F
100
AcDbEntity
  8
0
370
    -3
100
AcDbLine
 10
18194.93867412984
 20
-7286.68173188895
 30
0.0
 11
18194.33867412984
 21
-7286.729942865349
 31
0.0
  0
LINE
  5
67ECC
330
1F
100
AcDbEntity
  8
0
370
    -3
100
AcDbLine
 10
18195.43867412984
 20
-7286.633520912549
 30
0.0
 11
18196.03867412984
 21
-7286.58530993615
 31
0.0
  0
LINE
  5
67ECD
330
1F
100
AcDbEntity
  8
0
370
    -3
100
AcDbLine
 10
18189.64220060495
 20
-7287.09870615845
 30
0.0
 11
18190.03867412984
 21
-7287.066848865449
 31
0.0
  0
LINE
  5
67ECE
330
1F
100
AcDbEntity
  8
0
370
    -3
100
AcDbLine
 10
18191.93867412984
 20
-7286.874575794449
 30
0.0
 11
18192.53867412984
 21
-7286.82636481805
 31
0.0
  0
LINE
  5
67ECF
330
1F
100
AcDbEntity
  8
0
370
    -3
100
AcDbLine
 10
18196.93867412984
 20
-7286.44067700705
 30
0.0
 11
18196.33867412984
 21
-7286.488887983449
 31
0.0
  0
LINE
  5
67ED0
330
1F
100
AcDbEntity
  8
0
370
    -3
100
AcDbLine
 10
18190.93867412984
 20
-7286.92221593635
 30
0.0
 11
18190.33867412984
 21
-7286.970426912749
 31
0.0
  0
LINE
  5
67ED1
330
1F
100
AcDbEntity
  8
0
370
    -3
100
AcDbLine
 10
18193.43867412984
 20
-7286.68173188895
 30
0.0
 11
18192.83867412984
 21
-7286.729942865349
 31
0.0
  0
LINE
  5
67ED2
330
1F
100
AcDbEntity
  8
0
370
    -3
100
AcDbLine
 10
18193.93867412984
 20
-7286.633520912549
 30
0.0
 11
18194.53867412985
 21
-7286.58530993615
 31
0.0
  0
LINE
  5
67ED3
330
1F
100
AcDbEntity
  8
0
370
    -3
100
AcDbLine
 10
18190.43867412984
 20
-7286.874575794449
 30
0.0
 11
18191.03867412984
 21
-7286.82636481805
 31
0.0
  0
LINE
  5
67ED4
330
1F
100
AcDbEntity
  8
0
370
    -3
100
AcDbLine
 10
18195.43867412984
 20
-7286.44067700705
 30
0.0
 11
18194.83867412984
 21
-7286.488887983449
 31
0.0
  0
LINE
  5
67ED5
330
1F
100
AcDbEntity
  8
0
370
    -3
100
AcDbLine
 10
18189.43867412984
 20
-7286.92221593635
 30
0.0
 11
18188.83867412984
 21
-7286.970426912749
 31
0.0
  0
LINE
  5
67ED6
330
1F
100
AcDbEntity
  8
0
370
    -3
100
AcDbLine
 10
18191.93867412984
 20
-7286.68173188895
 30
0.0
 11
18191.33867412984
 21
-7286.729942865349
 31
0.0
  0
LINE
  5
67ED7
330
1F
100
AcDbEntity
  8
0
370
    -3
100
AcDbLine
 10
18192.43867412984
 20
-7286.633520912549
 30
0.0
 11
18193.03867412984
 21
-7286.58530993615
 31
0.0
  0
LINE
  5
67ED8
330
1F
100
AcDbEntity
  8
0
370
    -3
100
AcDbLine
 10
18194.93867412984
 20
-7286.393036865149
 30
0.0
 11
18195.45064090045
 21
-7286.351899501949
 31
0.0
  0
LINE
  5
67ED9
330
1F
100
AcDbEntity
  8
0
370
    -3
100
AcDbLine
 10
18188.93867412984
 20
-7286.874575794449
 30
0.0
 11
18189.53867412984
 21
-7286.82636481805
 31
0.0
  0
LINE
  5
67EDA
330
1F
100
AcDbEntity
  8
0
370
    -3
100
AcDbLine
 10
18193.93867412984
 20
-7286.44067700705
 30
0.0
 11
18193.33867412984
 21
-7286.488887983449
 31
0.0
  0
LINE
  5
67EDB
330
1F
100
AcDbEntity
  8
0
370
    -3
100
AcDbLine
 10
18187.93867412984
 20
-7286.92221593635
 30
0.0
 11
18187.63896400665
 21
-7286.94629813245
 31
0.0
  0
LINE
  5
67EDC
330
1F
100
AcDbEntity
  8
0
370
    -3
100
AcDbLine
 10
18188.53867412984
 20
-7286.970426912749
 30
0.0
 11
18187.93867412984
 21
-7286.92221593635
 31
0.0
  0
LINE
  5
67EDD
330
1F
100
AcDbEntity
  8
0
370
    -3
100
AcDbLine
 10
18186.83867412984
 20
-7286.82636481805
 30
0.0
 11
18187.43867412984
 21
-7286.874575794449
 31
0.0
  0
LINE
  5
67EDE
330
1F
100
AcDbEntity
  8
0
370
    -3
100
AcDbLine
 10
18190.33867412984
 20
-7287.066848865449
 30
0.0
 11
18190.93867412984
 21
-7287.115059841849
 31
0.0
  0
LINE
  5
67EDF
330
1F
100
AcDbEntity
  8
0
370
    -3
100
AcDbLine
 10
18186.53867412984
 20
-7286.729942865349
 30
0.0
 11
18185.93867412984
 21
-7286.68173188895
 31
0.0
  0
LINE
  5
67EE0
330
1F
100
AcDbEntity
  8
0
370
    -3
100
AcDbLine
 10
18191.98720696264
 20
-7287.16717051035
 30
0.0
 11
18191.93867412984
 21
-7287.16327081825
 31
0.0
  0
LINE
  5
67EE1
330
1F
100
AcDbEntity
  8
0
370
    -3
100
AcDbLine
 10
18190.03867412984
 20
-7286.970426912749
 30
0.0
 11
18189.43867412984
 21
-7286.92221593635
 31
0.0
  0
LINE
  5
67EE2
330
1F
100
AcDbEntity
  8
0
370
    -3
100
AcDbLine
 10
18188.33867412984
 20
-7286.82636481805
 30
0.0
 11
18188.93867412984
 21
-7286.874575794449
 31
0.0
  0
LINE
  5
67EE3
330
1F
100
AcDbEntity
  8
0
370
    -3
100
AcDbLine
 10
18185.83867412984
 20
-7286.58530993615
 30
0.0
 11
18186.43867412984
 21
-7286.633520912549
 31
0.0
  0
LINE
  5
67EE4
330
1F
100
AcDbEntity
  8
0
370
    -3
100
AcDbLine
 10
18191.83867412984
 20
-7287.066848865449
 30
0.0
 11
18192.43867412984
 21
-7287.115059841849
 31
0.0
  0
LINE
  5
67EE5
330
1F
100
AcDbEntity
  8
0
370
    -3
100
AcDbLine
 10
18188.03867412984
 20
-7286.729942865349
 30
0.0
 11
18187.43867412984
 21
-7286.68173188895
 31
0.0
  0
LINE
  5
67EE6
330
1F
100
AcDbEntity
  8
0
370
    -3
100
AcDbLine
 10
18191.53867412985
 20
-7286.970426912749
 30
0.0
 11
18190.93867412984
 21
-7286.92221593635
 31
0.0
  0
LINE
  5
67EE7
330
1F
100
AcDbEntity
  8
0
370
    -3
100
AcDbLine
 10
18189.83867412984
 20
-7286.82636481805
 30
0.0
 11
18190.43867412984
 21
-7286.874575794449
 31
0.0
  0
LINE
  5
67EE8
330
1F
100
AcDbEntity
  8
0
370
    -3
100
AcDbLine
 10
18187.33867412984
 20
-7286.58530993615
 30
0.0
 11
18187.93867412984
 21
-7286.633520912549
 31
0.0
  0
LINE
  5
67EE9
330
1F
100
AcDbEntity
  8
0
370
    -3
100
AcDbLine
 10
18193.33867412984
 20
-7287.066848865449
 30
0.0
 11
18193.93867412984
 21
-7287.115059841849
 31
0.0
  0
LINE
  5
67EEA
330
1F
100
AcDbEntity
  8
0
370
    -3
100
AcDbLine
 10
18189.53867412984
 20
-7286.729942865349
 30
0.0
 11
18188.93867412984
 21
-7286.68173188895
 31
0.0
  0
LINE
  5
67EEB
330
1F
100
AcDbEntity
  8
0
370
    -3
100
AcDbLine
 10
18187.03867412984
 20
-7286.488887983449
 30
0.0
 11
18186.54547054355
 21
-7286.44925827265
 31
0.0
  0
LINE
  5
67EEC
330
1F
100
AcDbEntity
  8
0
370
    -3
100
AcDbLine
 10
18193.03867412984
 20
-7286.970426912749
 30
0.0
 11
18192.43867412984
 21
-7286.92221593635
 31
0.0
  0
LINE
  5
67EED
330
1F
100
AcDbEntity
  8
0
370
    -3
100
AcDbLine
 10
18191.33867412984
 20
-7286.82636481805
 30
0.0
 11
18191.93867412984
 21
-7286.874575794449
 31
0.0
  0
LINE
  5
67EEE
330
1F
100
AcDbEntity
  8
0
370
    -3
100
AcDbLine
 10
18194.83867412984
 20
-7287.066848865449
 30
0.0
 11
18195.23514765484
 21
-7287.09870615845
 31
0.0
  0
LINE
  5
67EEF
330
1F
100
AcDbEntity
  8
0
370
    -3
100
AcDbLine
 10
18191.03867412984
 20
-7286.729942865349
 30
0.0
 11
18190.43867412984
 21
-7286.68173188895
 31
0.0
  0
LINE
  5
67EF0
330
1F
100
AcDbEntity
  8
0
370
    -3
100
AcDbLine
 10
18188.53867412984
 20
-7286.488887983449
 30
0.0
 11
18187.93867412984
 21
-7286.44067700705
 31
0.0
  0
LINE
  5
67EF1
330
1F
100
AcDbEntity
  8
0
370
    -3
100
AcDbLine
 10
18194.53867412985
 20
-7286.970426912749
 30
0.0
 11
18193.93867412984
 21
-7286.92221593635
 31
0.0
  0
LINE
  5
67EF2
330
1F
100
AcDbEntity
  8
0
370
    -3
100
AcDbLine
 10
18192.83867412984
 20
-7286.82636481805
 30
0.0
 11
18193.43867412984
 21
-7286.874575794449
 31
0.0
  0
LINE
  5
67EF3
330
1F
100
AcDbEntity
  8
0
370
    -3
100
AcDbLine
 10
18190.33867412984
 20
-7286.58530993615
 30
0.0
 11
18190.93867412984
 21
-7286.633520912549
 31
0.0
  0
LINE
  5
67EF4
330
1F
100
AcDbEntity
  8
0
370
    -3
100
AcDbLine
 10
18192.53867412984
 20
-7286.729942865349
 30
0.0
 11
18191.93867412984
 21
-7286.68173188895
 31
0.0
  0
LINE
  5
67EF5
330
1F
100
AcDbEntity
  8
0
370
    -3
100
AcDbLine
 10
18196.03867412984
 20
-7286.970426912749
 30
0.0
 11
18195.43867412984
 21
-7286.92221593635
 31
0.0
  0
LINE
  5
67EF6
330
1F
100
AcDbEntity
  8
0
370
    -3
100
AcDbLine
 10
18194.33867412984
 20
-7286.82636481805
 30
0.0
 11
18194.93867412984
 21
-7286.874575794449
 31
0.0
  0
LINE
  5
67EF7
330
1F
100
AcDbEntity
  8
0
370
    -3
100
AcDbLine
 10
18191.83867412984
 20
-7286.58530993615
 30
0.0
 11
18192.43867412984
 21
-7286.633520912549
 31
0.0
  0
LINE
  5
67EF8
330
1F
100
AcDbEntity
  8
0
370
    -3
100
AcDbLine
 10
18194.03867412984
 20
-7286.729942865349
 30
0.0
 11
18193.43867412984
 21
-7286.68173188895
 31
0.0
  0
LINE
  5
67EF9
330
1F
100
AcDbEntity
  8
0
370
    -3
100
AcDbLine
 10
18191.53867412985
 20
-7286.488887983449
 30
0.0
 11
18190.93867412984
 21
-7286.44067700705
 31
0.0
  0
LINE
  5
67EFA
330
1F
100
AcDbEntity
  8
0
370
    -3
100
AcDbLine
 10
18197.23838425314
 20
-7286.94629813245
 30
0.0
 11
18196.93867412984
 21
-7286.92221593635
 31
0.0
  0
LINE
  5
67EFB
330
1F
100
AcDbEntity
  8
0
370
    -3
100
AcDbLine
 10
18189.83867412984
 20
-7286.344825888749
 30
0.0
 11
18190.43867412984
 21
-7286.393036865149
 31
0.0
  0
LINE
  5
67EFC
330
1F
100
AcDbEntity
  8
0
370
    -3
100
AcDbLine
 10
18195.83867412984
 20
-7286.82636481805
 30
0.0
 11
18196.43867412984
 21
-7286.874575794449
 31
0.0
  0
LINE
  5
67EFD
330
1F
100
AcDbEntity
  8
0
370
    -3
100
AcDbLine
 10
18190.43867412984
 20
-7286.68173188895
 30
0.0
 11
18189.83867412984
 21
-7286.729942865349
 31
0.0
  0
LINE
  5
67EFE
330
1F
100
AcDbEntity
  8
0
370
    -3
100
AcDbLine
 10
18190.93867412984
 20
-7286.633520912549
 30
0.0
 11
18191.53867412985
 21
-7286.58530993615
 31
0.0
  0
LINE
  5
67EFF
330
1F
100
AcDbEntity
  8
0
370
    -3
100
AcDbLine
 10
18193.43867412984
 20
-7286.393036865149
 30
0.0
 11
18194.03867412984
 21
-7286.344825888749
 31
0.0
  0
LINE
  5
67F00
330
1F
100
AcDbEntity
  8
0
370
    -3
100
AcDbLine
 10
18187.43867412984
 20
-7286.874575794449
 30
0.0
 11
18188.03867412984
 21
-7286.82636481805
 31
0.0
  0
LINE
  5
67F01
330
1F
100
AcDbEntity
  8
0
370
    -3
100
AcDbLine
 10
18192.43867412984
 20
-7286.44067700705
 30
0.0
 11
18191.83867412984
 21
-7286.488887983449
 31
0.0
  0
LINE
  5
67F02
330
1F
100
AcDbEntity
  8
0
370
    -3
100
AcDbLine
 10
18188.93867412984
 20
-7286.68173188895
 30
0.0
 11
18188.33867412984
 21
-7286.729942865349
 31
0.0
  0
LINE
  5
67F03
330
1F
100
AcDbEntity
  8
0
370
    -3
100
AcDbLine
 10
18191.93867412984
 20
-7286.393036865149
 30
0.0
 11
18192.53867412984
 21
-7286.344825888749
 31
0.0
  0
LINE
  5
67F04
330
1F
100
AcDbEntity
  8
0
370
    -3
100
AcDbLine
 10
18190.93867412984
 20
-7286.44067700705
 30
0.0
 11
18190.33867412984
 21
-7286.488887983449
 31
0.0
  0
LINE
  5
67F05
330
1F
100
AcDbEntity
  8
0
370
    -3
100
AcDbLine
 10
18187.43867412984
 20
-7286.68173188895
 30
0.0
 11
18186.83867412984
 21
-7286.729942865349
 31
0.0
  0
LINE
  5
67F06
330
1F
100
AcDbEntity
  8
0
370
    -3
100
AcDbLine
 10
18187.93867412984
 20
-7286.633520912549
 30
0.0
 11
18188.53867412984
 21
-7286.58530993615
 31
0.0
  0
LINE
  5
67F07
330
1F
100
AcDbEntity
  8
0
370
    -3
100
AcDbLine
 10
18190.43867412984
 20
-7286.393036865149
 30
0.0
 11
18191.03867412984
 21
-7286.344825888749
 31
0.0
  0
LINE
  5
67F08
330
1F
100
AcDbEntity
  8
0
370
    -3
100
AcDbLine
 10
18185.93867412984
 20
-7286.68173188895
 30
0.0
 11
18185.85635111694
 21
-7286.68834667695
 31
0.0
  0
LINE
  5
67F09
330
1F
100
AcDbEntity
  8
0
370
    -3
100
AcDbLine
 10
18186.43867412984
 20
-7286.633520912549
 30
0.0
 11
18187.03867412984
 21
-7286.58530993615
 31
0.0
  0
LINE
  5
67F0A
330
1F
100
AcDbEntity
  8
0
370
    -3
100
AcDbLine
 10
18187.93867412984
 20
-7286.44067700705
 30
0.0
 11
18187.33867412984
 21
-7286.488887983449
 31
0.0
  0
LINE
  5
67F0B
330
1F
100
AcDbEntity
  8
0
370
    -3
100
AcDbLine
 10
18185.43497117585
 20
-7286.593642637249
 30
0.0
 11
18185.53867412984
 21
-7286.58530993615
 31
0.0
  0
LINE
  5
67F0C
330
1F
100
AcDbEntity
  8
0
370
    -3
100
AcDbLine
 10
18193.33867412984
 20
-7286.58530993615
 30
0.0
 11
18193.93867412984
 21
-7286.633520912549
 31
0.0
  0
LINE
  5
67F0D
330
1F
100
AcDbEntity
  8
0
370
    -3
100
AcDbLine
 10
18195.53867412984
 20
-7286.729942865349
 30
0.0
 11
18194.93867412984
 21
-7286.68173188895
 31
0.0
  0
LINE
  5
67F0E
330
1F
100
AcDbEntity
  8
0
370
    -3
100
AcDbLine
 10
18193.03867412984
 20
-7286.488887983449
 30
0.0
 11
18192.43867412984
 21
-7286.44067700705
 31
0.0
  0
LINE
  5
67F0F
330
1F
100
AcDbEntity
  8
0
370
    -3
100
AcDbLine
 10
18191.33867412984
 20
-7286.344825888749
 30
0.0
 11
18191.93867412984
 21
-7286.393036865149
 31
0.0
  0
LINE
  5
67F10
330
1F
100
AcDbEntity
  8
0
370
    -3
100
AcDbLine
 10
18197.33867412984
 20
-7286.82636481805
 30
0.0
 11
18197.88894145854
 21
-7286.870579693349
 31
0.0
  0
LINE
  5
67F11
330
1F
100
AcDbEntity
  8
0
370
    -3
100
AcDbLine
 10
18194.83867412984
 20
-7286.58530993615
 30
0.0
 11
18195.43867412984
 21
-7286.633520912549
 31
0.0
  0
LINE
  5
67F12
330
1F
100
AcDbEntity
  8
0
370
    -3
100
AcDbLine
 10
18197.03867412984
 20
-7286.729942865349
 30
0.0
 11
18196.43867412984
 21
-7286.68173188895
 31
0.0
  0
LINE
  5
67F13
330
1F
100
AcDbEntity
  8
0
370
    -3
100
AcDbLine
 10
18194.53867412985
 20
-7286.488887983449
 30
0.0
 11
18193.93867412984
 21
-7286.44067700705
 31
0.0
  0
LINE
  5
67F14
330
1F
100
AcDbEntity
  8
0
370
    -3
100
AcDbLine
 10
18192.83867412984
 20
-7286.344825888749
 30
0.0
 11
18193.43867412984
 21
-7286.393036865149
 31
0.0
  0
LINE
  5
67F15
330
1F
100
AcDbEntity
  8
0
370
    -3
100
AcDbLine
 10
18196.33867412984
 20
-7286.58530993615
 30
0.0
 11
18196.93867412984
 21
-7286.633520912549
 31
0.0
  0
LINE
  5
67F16
330
1F
100
AcDbEntity
  8
0
370
    -3
100
AcDbLine
 10
18198.53867412984
 20
-7286.729942865349
 30
0.0
 11
18197.93867412984
 21
-7286.68173188895
 31
0.0
  0
LINE
  5
67F17
330
1F
100
AcDbEntity
  8
0
370
    -3
100
AcDbLine
 10
18196.03867412984
 20
-7286.488887983449
 30
0.0
 11
18195.43867412984
 21
-7286.44067700705
 31
0.0
  0
LINE
  5
67F18
330
1F
100
AcDbEntity
  8
0
370
    -3
100
AcDbLine
 10
18194.33867412984
 20
-7286.344825888749
 30
0.0
 11
18194.93867412984
 21
-7286.393036865149
 31
0.0
  0
LINE
  5
67F19
330
1F
100
AcDbEntity
  8
0
370
    -3
100
AcDbLine
 10
18197.83867412984
 20
-7286.58530993615
 30
0.0
 11
18198.43867412984
 21
-7286.633520912549
 31
0.0
  0
LINE
  5
67F1A
330
1F
100
AcDbEntity
  8
0
370
    -3
100
AcDbLine
 10
18197.53867412984
 20
-7286.488887983449
 30
0.0
 11
18196.93867412984
 21
-7286.44067700705
 31
0.0
  0
LINE
  5
67F1B
330
1F
100
AcDbEntity
  8
0
370
    -3
100
AcDbLine
 10
18199.33867412984
 20
-7286.58530993615
 30
0.0
 11
18199.44237708384
 21
-7286.593642637249
 31
0.0
  0
LINE
  5
67F1C
330
1F
100
AcDbEntity
  8
0
370
    -3
100
AcDbLine
 10
18214.93848548074
 20
-7269.35459135845
 30
0.0
 11
18169.93826321995
 21
-7269.35459135845
 31
0.0
  0
LINE
  5
67F1D
330
1F
100
AcDbEntity
  8
0
370
    -3
100
AcDbLine
 10
18314.93867412984
 20
-7394.35459135845
 30
0.0
 11
18314.93867412984
 21
-7404.354591358449
 31
0.0
  0
LINE
  5
67F1E
330
1F
100
AcDbEntity
  8
0
370
    -3
100
AcDbLine
 10
18319.93867412984
 20
-7355.35459135845
 30
0.0
 11
18319.93867412984
 21
-7394.35459135845
 31
0.0
  0
LINE
  5
67F1F
330
1F
100
AcDbEntity
  8
0
370
    -3
100
AcDbLine
 10
18364.93867412984
 20
-7355.35459135845
 30
0.0
 11
18364.93867412984
 21
-7394.35459135845
 31
0.0
  0
LINE
  5
67F20
330
1F
100
AcDbEntity
  8
0
370
    -3
100
AcDbLine
 10
18369.93867412984
 20
-7394.35459135845
 30
0.0
 11
18369.93867412984
 21
-7404.354591358449
 31
0.0
  0
ARC
  5
67F21
330
1F
100
AcDbEntity
  8
0
370
    -3
100
AcDbCircle
 10
18518.99007764092
 20
-7333.534755115549
 30
0.0
 40
47.9460546176
100
AcDbArc
 50
95.15464746431685
 51
95.3706994264049
  0
ARC
  5
67F22
330
1F
100
AcDbEntity
  8
0
370
    -3
100
AcDbCircle
 10
18511.02872419492
 20
-7332.22919337215
 30
0.0
 40
47.3502072729
100
AcDbArc
 50
71.85187009097292
 51
72.13289344322842
  0
ARC
  5
67F23
330
1F
100
AcDbEntity
  8
0
370
    -3
100
AcDbCircle
 10
18511.47029980961
 20
-7330.86062767135
 30
0.0
 40
45.91216661109999
100
AcDbArc
 50
72.13337856402657
 51
72.2608223123769
  0
ARC
  5
67F24
330
1F
100
AcDbEntity
  8
0
370
    -3
100
AcDbCircle
 10
18517.00468985522
 20
-7311.13581086515
 30
0.0
 40
25.4592895341
100
AcDbArc
 50
94.88224590925158
 51
95.05941559934219
  0
ARC
  5
67F25
330
1F
100
AcDbEntity
  8
0
370
    -3
100
AcDbCircle
 10
18516.99996406081
 20
-7311.07579593385
 30
0.0
 40
25.3990901533
100
AcDbArc
 50
93.35531700636433
 51
94.88314623830893
  0
ARC
  5
67F26
330
1F
100
AcDbEntity
  8
0
370
    -3
100
AcDbCircle
 10
18192.43849847984
 20
-7229.77618143685
 30
0.0
 40
57.39276340159999
100
AcDbArc
 50
269.5494664449553
 51
270.0001753531424
  0
ARC
  5
67F27
330
1F
100
AcDbEntity
  8
0
370
    -3
100
AcDbCircle
 10
18192.39670865674
 20
-7232.92780102515
 30
0.0
 40
54.24089119439999
100
AcDbArc
 50
267.0891038891083
 51
269.4748424974887
  0
ARC
  5
67F28
330
1F
100
AcDbEntity
  8
0
370
    -3
100
AcDbCircle
 10
18191.64665166264
 20
-7246.99856158565
 30
0.0
 40
40.1495952336
100
AcDbArc
 50
265.5602959106716
 51
265.9895807984174
  0
ARC
  5
67F29
330
1F
100
AcDbEntity
  8
0
370
    -3
100
AcDbCircle
 10
18184.86799640694
 20
-7256.64730722105
 30
0.0
 40
29.8340015572
100
AcDbArc
 50
269.1647217361297
 51
269.774793753286
  0
ARC
  5
67F2A
330
1F
100
AcDbEntity
  8
0
370
    -3
100
AcDbCircle
 10
18193.23069659704
 20
-7246.99856158515
 30
0.0
 40
40.149595234
100
AcDbArc
 50
274.0104192015826
 51
274.4397040893284
  0
ARC
  5
67F2B
330
1F
100
AcDbEntity
  8
0
370
    -3
100
AcDbCircle
 10
18194.44080968604
 20
-7260.07752882125
 30
0.0
 40
27.0140183563
100
AcDbArc
 50
275.9442143664947
 51
277.3333717274854
  0
ARC
  5
67F2C
330
1F
100
AcDbEntity
  8
0
370
    -3
100
AcDbCircle
 10
18195.37791638444
 20
-7267.763626133149
 30
0.0
 40
20.1891096144
100
AcDbArc
 50
296.8537550875064
 51
297.4601141187089
  0
ARC
  5
67F2D
330
1F
100
AcDbEntity
  8
0
370
    -3
100
AcDbCircle
 10
18195.37916011474
 20
-7267.76604277115
 30
0.0
 40
20.1863917245
100
AcDbArc
 50
296.8720157821699
 51
297.4633338853968
  0
SPLINE
  5
67F2E
330
1F
100
AcDbEntity
  8
0
370
    -3
100
AcDbSpline
210
0.0
220
0.0
230
1.0
 70
     8
 71
     3
 72
     9
 73
     5
 74
     0
 42
0.000000001
 43
0.0000000001
 40
0.0
 40
0.0
 40
0.0
 40
0.0
 40
0.2497782108
 40
1.0
 40
1.0
 40
1.0
 40
1.0
 10
18634.96673049091
 20
-7289.888243633651
 30
0.0
 10
18635.57311690201
 20
-7290.024649241449
 30
0.0
 10
18637.98960757381
 20
-7290.61727140505
 30
0.0
 10
18640.36076135492
 20
-7291.41145442745
 30
0.0
 10
18642.07432081902
 20
-7292.15223111885
 30
0.0
  0
LINE
  5
67F2F
330
1F
100
AcDbEntity
  8
0
370
    -3
100
AcDbLine
 10
18514.75946700021
 20
-7285.775716269249
 30
0.0
 11
18514.68239991482
 21
-7285.782602640449
 31
0.0
  0
SPLINE
  5
67F30
330
1F
100
AcDbEntity
  8
0
370
    -3
100
AcDbSpline
210
0.0
220
0.0
230
1.0
 70
     8
 71
     3
 72
    26
 73
    22
 74
     0
 42
0.000000001
 43
0.0000000001
 40
0.0
 40
0.0
 40
0.0
 40
0.0
 40
0.20324333
 40
0.3944660229999999
 40
0.5678127905000001
 40
0.6459195552
 40
0.7174170176000001
 40
0.7817470745000001
 40
0.8384293732999999
 40
0.8870650649999999
 40
0.9273242806
 40
0.9442278218
 40
0.9589388471999999
 40
0.9714343976999998
 40
0.9816915063999999
 40
0.9896878819999999
 40
0.9954107528999999
 40
0.9974168408
 40
0.9988511816999999
 40
0.9997126223
 40
1.0
 40
1.0
 40
1.0
 40
1.0
 10
18514.50236628652
 20
-7285.799185566249
 30
0.0
 10
18513.82424146811
 20
-7285.86292709455
 30
0.0
 10
18512.51089761901
 20
-7286.015520606449
 30
0.0
 10
18510.62355009852
 20
-7286.25719412705
 30
0.0
 10
18509.14674064451
 20
-7286.40392283145
 30
0.0
 10
18508.06599994092
 20
-7286.46457424065
 30
0.0
 10
18507.34919587852
 20
-7286.483341342949
 30
0.0
 10
18506.70395843992
 20
-7286.480797095748
 30
0.0
 10
18506.13567624261
 20
-7286.461323604149
 30
0.0
 10
18505.64873839532
 20
-7286.43030137125
 30
0.0
 10
18505.29558852572
 20
-7286.398294775449
 30
0.0
 10
18505.05613998072
 20
-7286.372225986049
 30
0.0
 10
18504.90933986052
 20
-7286.35473681135
 30
0.0
 10
18504.78484708431
 20
-7286.338769883549
 30
0.0
 10
18504.68266287081
 20
-7286.32464741855
 30
0.0
 10
18504.60336320151
 20
-7286.31354972795
 30
0.0
 10
18504.55074928261
 20
-7286.305122823749
 30
0.0
 10
18504.52105786591
 20
-7286.30134084345
 30
0.0
 10
18504.50572622091
 20
-7286.297664203349
 30
0.0
 10
18504.49909879762
 20
-7286.29887920065
 30
0.0
 10
18504.49330312881
 20
-7286.295616301349
 30
0.0
 10
18504.49316909571
 20
-7286.29656999595
 30
0.0
  0
SPLINE
  5
67F31
330
1F
100
AcDbEntity
  8
0
370
    -3
100
AcDbSpline
210
0.0
220
0.0
230
1.0
 70
     8
 71
     3
 72
     9
 73
     5
 74
     0
 42
0.000000001
 43
0.0000000001
 40
0.0
 40
0.0
 40
0.0
 40
0.0
 40
0.2606569703999999
 40
1.0
 40
1.0
 40
1.0
 40
1.0
 10
18528.94470858232
 20
-7288.35459135845
 30
0.0
 10
18528.67013634551
 20
-7288.25555260585
 30
0.0
 10
18527.61764336232
 20
-7287.87262190255
 30
0.0
 10
18526.56395934362
 20
-7287.492348321549
 30
0.0
 10
18525.77711945872
 20
-7287.23444961325
 30
0.0
  0
SPLINE
  5
67F32
330
1F
100
AcDbEntity
  8
0
370
    -3
100
AcDbSpline
210
0.0
220
0.0
230
1.0
 70
     8
 71
     3
 72
    10
 73
     6
 74
     0
 42
0.000000001
 43
0.0000000001
 40
0.0
 40
0.0
 40
0.0
 40
0.0
 40
0.4608456667000001
 40
0.7270746339000001
 40
1.0
 40
1.0
 40
1.0
 40
1.0
 10
18525.45902076112
 20
-7287.131429999049
 30
0.0
 10
18523.98142773221
 20
-7286.65876504365
 30
0.0
 10
18521.60176678462
 20
-7286.03779349985
 30
0.0
 10
18518.25034669102
 20
-7285.660656205549
 30
0.0
 10
18516.43058854982
 20
-7285.666488352349
 30
0.0
 10
18515.51340959291
 20
-7285.720245527049
 30
0.0
  0
SPLINE
  5
67F33
330
1F
100
AcDbEntity
  8
0
370
    -3
100
AcDbSpline
210
0.0
220
0.0
230
1.0
 70
     8
 71
     3
 72
     9
 73
     5
 74
     0
 42
0.000000001
 43
0.0000000001
 40
0.0
 40
0.0
 40
0.0
 40
0.0
 40
0.5327979389000001
 40
1.0
 40
1.0
 40
1.0
 40
1.0
 10
18619.07432081902
 20
-7288.35459135845
 30
0.0
 10
18621.91416787192
 20
-7288.35459135845
 30
0.0
 10
18627.24808806462
 20
-7288.56061212515
 30
0.0
 10
18632.53722376952
 20
-7289.341730164949
 30
0.0
 10
18634.96673049091
 20
-7289.888243633651
 30
0.0
  0
SPLINE
  5
67F34
330
1F
100
AcDbEntity
  8
0
370
    -3
100
AcDbSpline
210
0.0
220
0.0
230
1.0
 70
     8
 71
     3
 72
    11
 73
     7
 74
     0
 42
0.000000001
 43
0.0000000001
 40
0.0
 40
0.0
 40
0.0
 40
0.0
 40
0.2634763636
 40
0.5187639434
 40
0.7653592909999999
 40
1.0
 40
1.0
 40
1.0
 40
1.0
 10
18504.49316909432
 20
-7286.29656999625
 30
0.0
 10
18502.84382769951
 20
-7285.495616830949
 30
0.0
 10
18499.79720266052
 20
-7283.46735345385
 30
0.0
 10
18496.20724162002
 20
-7279.46653340605
 30
0.0
 10
18493.73441685422
 20
-7274.927787414251
 30
0.0
 10
18492.85330333352
 20
-7271.65387813275
 30
0.0
 10
18492.64729912281
 20
-7270.03405716365
 30
0.0
  0
SPLINE
  5
67F35
330
1F
100
AcDbEntity
  8
0
370
    -3
100
AcDbSpline
210
0.0
220
0.0
230
1.0
 70
     8
 71
     3
 72
    15
 73
    11
 74
     0
 42
0.000000001
 43
0.0000000001
 40
0.0
 40
0.0
 40
0.0
 40
0.0
 40
0.1260797386
 40
0.2448581004
 40
0.3599072017
 40
0.4749826244000001
 40
0.5936833331
 40
0.7191557348000001
 40
0.8539458873
 40
1.0
 40
1.0
 40
1.0
 40
1.0
 10
18642.07432081902
 20
-7292.15223111885
 30
0.0
 10
18643.40935213652
 20
-7292.72936900245
 30
0.0
 10
18645.93307587372
 20
-7294.024498721549
 30
0.0
 10
18649.29722225942
 20
-7296.489103634449
 30
0.0
 10
18652.10214946882
 20
-7299.40467983385
 30
0.0
 10
18654.35260331962
 20
-7302.764626138349
 30
0.0
 10
18656.06194668232
 20
-7306.558957328149
 30
0.0
 10
18657.25019737681
 20
-7310.78048667765
 30
0.0
 10
18657.93951571701
 20
-7315.427020255949
 30
0.0
 10
18658.07432081902
 20
-7318.66972907665
 30
0.0
 10
18658.07432081902
 20
-7320.354591358449
 30
0.0
  0
SPLINE
  5
67F36
330
1F
100
AcDbEntity
  8
0
370
    -3
100
AcDbSpline
210
0.0
220
0.0
230
1.0
 70
     8
 71
     3
 72
    18
 73
    14
 74
     0
 42
0.000000001
 43
0.0000000001
 40
0.0
 40
0.0
 40
0.0
 40
0.0
 40
0.1768760817
 40
0.3482175169
 40
0.5087094715
 40
0.6533788733
 40
0.7778271067000001
 40
0.8313023229999998
 40
0.8784385967
 40
0.9189513479
 40
0.9526671231999998
 40
0.9795808352999999
 40
1.0
 40
1.0
 40
1.0
 40
1.0
 10
18192.43867412984
 20
-7287.76310567935
 30
0.0
 10
18192.91278696514
 20
-7287.76310567935
 30
0.0
 10
18193.84622192434
 20
-7287.751649332349
 30
0.0
 10
18195.20898925384
 20
-7287.70039191655
 30
0.0
 10
18196.48372595054
 20
-7287.617005366349
 30
0.0
 10
18197.62996395964
 20
-7287.504303277749
 30
0.0
 10
18198.48675515284
 20
-7287.384451338349
 30
0.0
 10
18199.07976763104
 20
-7287.273120957149
 30
0.0
 10
18199.44875329934
 20
-7287.18919602595
 30
0.0
 10
18199.76214122144
 20
-7287.101405798449
 30
0.0
 10
18200.01797118175
 20
-7287.01045285045
 30
0.0
 10
18200.21454038214
 20
-7286.91739942535
 30
0.0
 10
18200.32017944074
 20
-7286.84451365455
 30
0.0
 10
18200.35926307794
 20
-7286.806196702049
 30
0.0
  0
SPLINE
  5
67F37
330
1F
100
AcDbEntity
  8
0
370
    -3
100
AcDbSpline
210
0.0
220
0.0
230
1.0
 70
     8
 71
     3
 72
    10
 73
     6
 74
     0
 42
0.000000001
 43
0.0000000001
 40
0.0
 40
0.0
 40
0.0
 40
0.0
 40
0.5540648228000001
 40
0.7848678363
 40
1.0
 40
1.0
 40
1.0
 40
1.0
 10
18184.53593130135
 20
-7286.476648030749
 30
0.0
 10
18184.50772847464
 20
-7286.50159221185
 30
0.0
 10
18184.47053399664
 20
-7286.541827427249
 30
0.0
 10
18184.44310754305
 20
-7286.604650228049
 30
0.0
 10
18184.43868462374
 20
-7286.63510167885
 30
0.0
 10
18184.43868462374
 20
-7286.649720871749
 30
0.0
  0
SPLINE
  5
67F38
330
1F
100
AcDbEntity
  8
0
370
    -3
100
AcDbSpline
210
0.0
220
0.0
230
1.0
 70
     8
 71
     3
 72
    10
 73
     6
 74
     0
 42
0.000000001
 43
0.0000000001
 40
0.0
 40
0.0
 40
0.0
 40
0.0
 40
0.2149228533
 40
0.4456196972
 40
1.0
 40
1.0
 40
1.0
 40
1.0
 10
18200.43866363594
 20
-7286.649720871749
 30
0.0
 10
18200.43866363594
 20
-7286.635042361449
 30
0.0
 10
18200.43420251774
 20
-7286.60445834405
 30
0.0
 10
18200.40653768734
 20
-7286.541359242649
 30
0.0
 10
18200.36905363895
 20
-7286.50099163595
 30
0.0
 10
18200.34064248494
 20
-7286.47596442495
 30
0.0
  0
SPLINE
  5
67F39
330
1F
100
AcDbEntity
  8
0
370
    -3
100
AcDbSpline
210
0.0
220
0.0
230
1.0
 70
     8
 71
     3
 72
    18
 73
    14
 74
     0
 42
0.000000001
 43
0.0000000001
 40
0.0
 40
0.0
 40
0.0
 40
0.0
 40
0.0204191647
 40
0.0473328768
 40
0.0810486521
 40
0.1215614033
 40
0.168697677
 40
0.2221728933
 40
0.3466211267
 40
0.4912905285
 40
0.6517824831
 40
0.8231239182999999
 40
1.0
 40
1.0
 40
1.0
 40
1.0
 10
18184.51808518174
 20
-7286.806196702049
 30
0.0
 10
18184.55716881904
 20
-7286.84451365455
 30
0.0
 10
18184.66280787754
 20
-7286.91739942535
 30
0.0
 10
18184.85937707795
 20
-7287.01045285045
 30
0.0
 10
18185.11520703824
 20
-7287.101405798449
 30
0.0
 10
18185.42859496034
 20
-7287.18919602595
 30
0.0
 10
18185.79758062874
 20
-7287.273120957149
 30
0.0
 10
18186.39059310684
 20
-7287.384451338349
 30
0.0
 10
18187.24738430005
 20
-7287.504303277749
 30
0.0
 10
18188.39362230914
 20
-7287.617005366349
 30
0.0
 10
18189.66835900584
 20
-7287.70039191655
 30
0.0
 10
18191.03112633534
 20
-7287.751649332349
 30
0.0
 10
18191.96456129454
 20
-7287.76310567935
 30
0.0
 10
18192.43867412984
 20
-7287.76310567935
 30
0.0
  0
SPLINE
  5
67F3A
330
1F
100
AcDbEntity
  8
0
370
    -3
100
AcDbSpline
210
0.0
220
0.0
230
1.0
 70
     8
 71
     3
 72
     9
 73
     5
 74
     0
 42
0.000000001
 43
0.0000000001
 40
0.0
 40
0.0
 40
0.0
 40
0.0
 40
0.2640828026
 40
1.0
 40
1.0
 40
1.0
 40
1.0
 10
18185.85635111694
 20
-7286.68834667695
 30
0.0
 10
18185.81907978904
 20
-7286.68083724035
 30
0.0
 10
18185.67809320865
 20
-7286.65167934325
 30
0.0
 10
18185.53770739354
 20
-7286.61954342335
 30
0.0
 10
18185.43497117585
 20
-7286.593642637249
 30
0.0
  0
SPLINE
  5
67F3B
330
1F
100
AcDbEntity
  8
0
370
    -3
100
AcDbSpline
210
0.0
220
0.0
230
1.0
 70
     8
 71
     3
 72
     9
 73
     5
 74
     0
 42
0.000000001
 43
0.0000000001
 40
0.0
 40
0.0
 40
0.0
 40
0.0
 40
0.4518343891
 40
1.0
 40
1.0
 40
1.0
 40
1.0
 10
18184.43868462374
 20
-7286.649720871749
 30
0.0
 10
18184.43868462374
 20
-7286.67669064925
 30
0.0
 10
18184.45569153024
 20
-7286.73664756525
 30
0.0
 10
18184.49472080154
 20
-7286.783290649549
 30
0.0
 10
18184.51808518174
 20
-7286.806196702049
 30
0.0
  0
SPLINE
  5
67F3C
330
1F
100
AcDbEntity
  8
0
370
    -3
100
AcDbSpline
210
0.0
220
0.0
230
1.0
 70
     8
 71
     3
 72
     9
 73
     5
 74
     0
 42
0.000000001
 43
0.0000000001
 40
0.0
 40
0.0
 40
0.0
 40
0.0
 40
0.5481656109000001
 40
1.0
 40
1.0
 40
1.0
 40
1.0
 10
18200.35926307794
 20
-7286.806196702049
 30
0.0
 10
18200.38262745825
 20
-7286.783290649549
 30
0.0
 10
18200.42165672944
 20
-7286.73664756525
 30
0.0
 10
18200.43866363594
 20
-7286.67669064925
 30
0.0
 10
18200.43866363594
 20
-7286.649720871749
 30
0.0
  0
SPLINE
  5
67F3D
330
1F
100
AcDbEntity
  8
0
370
    -3
100
AcDbSpline
210
0.0
220
0.0
230
1.0
 70
     8
 71
     3
 72
     9
 73
     5
 74
     0
 42
0.000000001
 43
0.0000000001
 40
0.0
 40
0.0
 40
0.0
 40
0.0
 40
0.5340199283000001
 40
1.0
 40
1.0
 40
1.0
 40
1.0
 10
18198.53867412984
 20
-7286.77590687945
 30
0.0
 10
18198.70064929174
 20
-7286.74933959265
 30
0.0
 10
18199.00324710704
 20
-7286.69506059675
 30
0.0
 10
18199.30349630985
 20
-7286.62865581275
 30
0.0
 10
18199.44237708384
 20
-7286.593642637249
 30
0.0
  0
SPLINE
  5
67F3E
330
1F
100
AcDbEntity
  8
0
370
    -3
100
AcDbSpline
210
0.0
220
0.0
230
1.0
 70
     8
 71
     3
 72
     9
 73
     5
 74
     0
 42
0.000000001
 43
0.0000000001
 40
0.0
 40
0.0
 40
0.0
 40
0.0
 40
0.2549483187
 40
1.0
 40
1.0
 40
1.0
 40
1.0
 10
18192.43867412984
 20
-7287.16894483815
 30
0.0
 10
18192.67641567484
 20
-7287.16894483815
 30
0.0
 10
18193.60890836645
 20
-7287.163125348449
 30
0.0
 10
18194.54131514884
 20
-7287.134733383449
 30
0.0
 10
18195.23514765484
 20
-7287.09870615845
 30
0.0
  0
SPLINE
  5
67F3F
330
1F
100
AcDbEntity
  8
0
370
    -3
100
AcDbSpline
210
0.0
220
0.0
230
1.0
 70
     8
 71
     3
 72
     9
 73
     5
 74
     0
 42
0.000000001
 43
0.0000000001
 40
0.0
 40
0.0
 40
0.0
 40
0.0
 40
0.2649752428
 40
1.0
 40
1.0
 40
1.0
 40
1.0
 10
18187.63896400665
 20
-7286.94629813245
 30
0.0
 10
18187.54153487304
 20
-7286.936129456049
 30
0.0
 10
18187.17404097984
 20
-7286.895932974549
 30
0.0
 10
18186.80731954664
 20
-7286.848310358549
 30
0.0
 10
18186.53867412984
 20
-7286.807481268249
 30
0.0
  0
SPLINE
  5
67F40
330
1F
100
AcDbEntity
  8
0
370
    -3
100
AcDbSpline
210
0.0
220
0.0
230
1.0
 70
     8
 71
     3
 72
     8
 73
     4
 74
     0
 42
0.000000001
 43
0.0000000001
 40
0.0
 40
0.0
 40
0.0
 40
0.0
 40
1.0
 40
1.0
 40
1.0
 40
1.0
 10
18204.42047150624
 20
-7285.81445446535
 30
0.0
 10
18201.15006713894
 20
-7287.452883551549
 30
0.0
 10
18197.14618028484
 20
-7288.35459135845
 30
0.0
 10
18192.43867412984
 20
-7288.35459135845
 30
0.0
  0
SPLINE
  5
67F41
330
1F
100
AcDbEntity
  8
0
370
    -3
100
AcDbSpline
210
0.0
220
0.0
230
1.0
 70
     8
 71
     3
 72
     8
 73
     4
 74
     0
 42
0.000000001
 43
0.0000000001
 40
0.0
 40
0.0
 40
0.0
 40
0.0
 40
1.0
 40
1.0
 40
1.0
 40
1.0
 10
18173.97752347674
 20
-7280.48141153745
 30
0.0
 10
18176.62128634655
 20
-7283.433027712549
 30
0.0
 10
18178.27669202564
 20
-7284.68394765195
 30
0.0
 10
18180.37991279625
 20
-7285.775716269249
 30
0.0
  0
SPLINE
  5
67F42
330
1F
100
AcDbEntity
  8
0
370
    -3
100
AcDbSpline
210
0.0
220
0.0
230
1.0
 70
     8
 71
     3
 72
     8
 73
     4
 74
     0
 42
0.000000001
 43
0.0000000001
 40
0.0
 40
0.0
 40
0.0
 40
0.0
 40
1.0
 40
1.0
 40
1.0
 40
1.0
 10
18204.68182350254
 20
-7285.681144404249
 30
0.0
 10
18205.79976332594
 20
-7285.10063168425
 30
0.0
 10
18206.82979935194
 20
-7284.43245256275
 30
0.0
 10
18207.77069462934
 20
-7283.683440881349
 30
0.0
  0
SPLINE
  5
67F43
330
1F
100
AcDbEntity
  8
0
370
    -3
100
AcDbSpline
210
0.0
220
0.0
230
1.0
 70
     8
 71
     3
 72
    10
 73
     6
 74
     0
 42
0.000000001
 43
0.0000000001
 40
0.0
 40
0.0
 40
0.0
 40
0.0
 40
0.5339908435
 40
0.7796579820999999
 40
1.0
 40
1.0
 40
1.0
 40
1.0
 10
18192.43867412984
 20
-7286.29656999595
 30
0.0
 10
18193.86400547314
 20
-7286.296428293749
 30
0.0
 10
18195.94479849564
 20
-7286.36131837895
 30
0.0
 10
18198.61167253024
 20
-7286.46706549865
 30
0.0
 10
18199.85586400005
 20
-7286.486801974549
 30
0.0
 10
18200.44393804615
 20
-7286.478118790549
 30
0.0
  0
SPLINE
  5
67F44
330
1F
100
AcDbEntity
  8
0
370
    -3
100
AcDbSpline
210
0.0
220
0.0
230
1.0
 70
     8
 71
     3
 72
    11
 73
     7
 74
     0
 42
0.000000001
 43
0.0000000001
 40
0.0
 40
0.0
 40
0.0
 40
0.0
 40
0.3559700299
 40
0.6440611306
 40
0.8603444534999999
 40
1.0
 40
1.0
 40
1.0
 40
1.0
 10
18200.44393804615
 20
-7286.478118790549
 30
0.0
 10
18200.93546864834
 20
-7286.47086111485
 30
0.0
 10
18201.82505187824
 20
-7286.43506059485
 30
0.0
 10
18203.00492807804
 20
-7286.27229194905
 30
0.0
 10
18203.86562656925
 20
-7286.04171407145
 30
0.0
 10
18204.32538126554
 20
-7285.86281276185
 30
0.0
 10
18204.49745229074
 20
-7285.77571152295
 30
0.0
  0
SPLINE
  5
67F45
330
1F
100
AcDbEntity
  8
0
370
    -3
100
AcDbSpline
210
0.0
220
0.0
230
1.0
 70
     8
 71
     3
 72
     8
 73
     4
 74
     0
 42
0.000000001
 43
0.0000000001
 40
0.0
 40
0.0
 40
0.0
 40
0.0
 40
1.0
 40
1.0
 40
1.0
 40
1.0
 10
18192.43867412984
 20
-7288.35459135845
 30
0.0
 10
18187.74269927465
 20
-7288.35459135845
 30
0.0
 10
18183.74690083254
 20
-7287.457295708549
 30
0.0
 10
18180.48092307195
 20
-7285.826481472451
 30
0.0
  0
SPLINE
  5
67F46
330
1F
100
AcDbEntity
  8
0
370
    -3
100
AcDbSpline
210
0.0
220
0.0
230
1.0
 70
     8
 71
     3
 72
     8
 73
     4
 74
     0
 42
0.000000001
 43
0.0000000001
 40
0.0
 40
0.0
 40
0.0
 40
0.0
 40
1.0
 40
1.0
 40
1.0
 40
1.0
 10
18173.97752347674
 20
-7280.48141153745
 30
0.0
 10
18171.72649191634
 20
-7277.513474366649
 30
0.0
 10
18170.37612957464
 20
-7273.82833833005
 30
0.0
 10
18169.93826321995
 20
-7269.35459135845
 30
0.0
  0
SPLINE
  5
67F47
330
1F
100
AcDbEntity
  8
0
370
    -3
100
AcDbSpline
210
0.0
220
0.0
230
1.0
 70
     8
 71
     3
 72
    11
 73
     7
 74
     0
 42
0.000000001
 43
0.0000000001
 40
0.0
 40
0.0
 40
0.0
 40
0.0
 40
0.1396629237
 40
0.3559467577
 40
0.6440321753
 40
1.0
 40
1.0
 40
1.0
 40
1.0
 10
18180.37991279625
 20
-7285.775716269249
 30
0.0
 10
18180.55197847995
 20
-7285.86281502115
 30
0.0
 10
18181.01168050695
 20
-7286.041771279951
 30
0.0
 10
18181.87235410225
 20
-7286.272179771749
 30
0.0
 10
18183.05208944605
 20
-7286.43507299805
 30
0.0
 10
18183.94159421945
 20
-7286.470902887349
 30
0.0
 10
18184.43308112074
 20
-7286.47813854715
 30
0.0
  0
SPLINE
  5
67F48
330
1F
100
AcDbEntity
  8
0
370
    -3
100
AcDbSpline
210
0.0
220
0.0
230
1.0
 70
     8
 71
     3
 72
     9
 73
     5
 74
     0
 42
0.000000001
 43
0.0000000001
 40
0.0
 40
0.0
 40
0.0
 40
0.0
 40
0.4693863718
 40
1.0
 40
1.0
 40
1.0
 40
1.0
 10
18184.75073146574
 20
-7286.48107831775
 30
0.0
 10
18185.95394244105
 20
-7286.485979112949
 30
0.0
 10
18188.51583637905
 20
-7286.369647597149
 30
0.0
 10
18191.07850376225
 20
-7286.296434771749
 30
0.0
 10
18192.43867412984
 20
-7286.29656999595
 30
0.0
  0
LINE
  5
67F49
330
1F
100
AcDbEntity
  8
0
370
    -3
100
AcDbLine
 10
18688.07432081902
 20
-7351.954591358448
 30
0.0
 11
18688.07432081902
 21
-7355.354591358448
 31
0.0
  0
LINE
  5
67F4A
330
1F
100
AcDbEntity
  8
0
370
    -3
100
AcDbLine
 10
18673.07432081902
 20
-7350.85459135845
 30
0.0
 11
18673.07432081902
 21
-7355.354591358448
 31
0.0
  0
LINE
  5
67F4B
330
1F
100
AcDbEntity
  8
0
370
    -3
100
AcDbLine
 10
18673.07432081902
 20
-7355.354591358448
 30
0.0
 11
18673.07432081902
 21
-7350.85459135845
 31
0.0
  0
LWPOLYLINE
  5
67F4C
330
1F
100
AcDbEntity
  8
0
370
    -3
100
AcDbPolyline
 90
        5
 70
     0
 43
0.0
 10
18613.85705898834
 20
-7338.070295340196
 10
18614.36318569311
 20
-7338.289800305149
 10
18614.63022593212
 20
-7338.384384002146
 10
18614.91718341911
 20
-7338.471455522148
 10
18615.10292281661
 20
-7338.52020103535
  0
LINE
  5
67F4D
330
1F
100
AcDbEntity
  8
0
370
    -3
100
AcDbLine
 10
18665.57432081902
 20
-7340.50177545525
 30
0.0
 11
18617.41727308391
 21
-7338.820094291849
 31
0.0
  0
LINE
  5
67F4E
330
1F
100
AcDbEntity
  8
0
370
    -3
100
AcDbLine
 10
18611.57860542052
 20
-7334.113460795546
 30
0.0
 11
18611.52035618632
 21
-7334.112367567851
 31
0.0
  0
LINE
  5
67F4F
330
1F
100
AcDbEntity
  8
0
370
    -3
100
AcDbLine
 10
18611.57709477471
 20
-7334.113407822046
 30
0.0
 11
18611.57946204471
 21
-7334.113490488947
 31
0.0
  0
LINE
  5
67F50
330
1F
100
AcDbEntity
  8
0
370
    -3
100
AcDbLine
 10
18700.36804633731
 20
-7337.214056174449
 30
0.0
 11
18690.07432081902
 21
-7336.854591358449
 31
0.0
  0
LINE
  5
67F51
330
1F
100
AcDbEntity
  8
0
370
    -3
100
AcDbLine
 10
18690.07432081902
 20
-7336.854591358449
 30
0.0
 11
18611.57946204471
 21
-7334.113490488947
 31
0.0
  0
LWPOLYLINE
  5
67F52
330
1F
100
AcDbEntity
  8
0
370
    -3
100
AcDbPolyline
 90
       12
 70
     0
 43
0.0
 10
18611.33698166891
 20
-7334.124092961549
 10
18611.32509112201
 20
-7334.125835897947
 10
18611.31682285911
 20
-7334.127132170947
 10
18611.30780555341
 20
-7334.128627454247
 10
18611.29841550311
 20
-7334.130277558848
 10
18611.28861570592
 20
-7334.132103997646
 10
18611.27805559331
 20
-7334.134195571547
 10
18611.26642441752
 20
-7334.136653234349
 10
18611.25315762411
 20
-7334.139662346348
 10
18611.23728759211
 20
-7334.143565507449
 10
18611.21733909831
 20
-7334.148972523149
 10
18611.19336625311
 20
-7334.15627213565
  0
LINE
  5
67F53
330
1F
100
AcDbEntity
  8
0
370
    -3
100
AcDbLine
 10
18611.0937633804
 20
-7334.198449495715
 30
0.0
 11
18611.02464286001
 21
-7334.24365936295
 31
0.0
  0
LWPOLYLINE
  5
67F54
330
1F
100
AcDbEntity
  8
0
370
    -3
100
AcDbPolyline
 90
        7
 70
     0
 43
0.0
 10
18611.19336625311
 20
-7334.15627213565
 10
18611.17054109631
 20
-7334.164118521748
 10
18611.15155717921
 20
-7334.171380658147
 10
18611.13529057462
 20
-7334.178187286048
 10
18611.12049646831
 20
-7334.184887339546
 10
18611.10556839062
 20
-7334.192182606549
 10
18611.0937633804
 20
-7334.198449495715
  0
ARC
  5
67F55
330
1F
100
AcDbEntity
  8
0
370
    -3
100
AcDbCircle
 10
18691.54628516521
 20
-7320.935834566746
 30
0.0
 40
20.4039914839
100
AcDbArc
 50
278.5344521728007
 51
282.2389693103555
  0
ARC
  5
67F56
330
1F
100
AcDbEntity
  8
0
370
    -3
100
AcDbCircle
 10
18691.73794167271
 20
-7321.802954742449
 30
0.0
 40
19.5159504074
100
AcDbArc
 50
282.228752198706
 51
286.9093573423934
  0
ARC
  5
67F57
330
1F
100
AcDbEntity
  8
0
370
    -3
100
AcDbCircle
 10
18617.87451738571
 20
-7325.207816429749
 30
0.0
 40
13.6199552476
100
AcDbArc
 50
264.78945406015
 51
268.0761249316633
  0
ARC
  5
67F58
330
1F
100
AcDbEntity
  8
0
370
    -3
100
AcDbCircle
 10
18617.72059688232
 20
-7326.906750305646
 30
0.0
 40
11.9140634926
100
AcDbArc
 50
262.9876395201491
 51
264.7846174566795
  0
ARC
  5
67F59
330
1F
100
AcDbEntity
  8
0
370
    -3
100
AcDbCircle
 10
18617.57662487362
 20
-7328.044197266248
 30
0.0
 40
10.7675489734
100
AcDbArc
 50
260.832067022005
 51
263.0090923363112
  0
ARC
  5
67F5A
330
1F
100
AcDbEntity
  8
0
370
    -3
100
AcDbCircle
 10
18616.36845756962
 20
-7332.948931117447
 30
0.0
 40
5.7039893352
100
AcDbArc
 50
228.1351391147232
 51
243.8777360169754
  0
ARC
  5
67F5B
330
1F
100
AcDbEntity
  8
0
370
    -3
100
AcDbCircle
 10
18611.51701789682
 20
-7335.842289148247
 30
0.0
 40
1.729924890099999
100
AcDbArc
 50
87.98063080834545
 51
89.88548594305349
  0
ARC
  5
67F5C
330
1F
100
AcDbEntity
  8
0
370
    -3
100
AcDbCircle
 10
18611.29112857421
 20
-7334.579783828548
 30
0.0
 40
0.4289455586
100
AcDbArc
 50
128.4080337817096
 51
130.1231553368634
  0
ARC
  5
67F5D
330
1F
100
AcDbEntity
  8
0
370
    -3
100
AcDbCircle
 10
18611.27227599541
 20
-7334.558087253047
 30
0.0
 40
0.4003113953000001
100
AcDbArc
 50
141.3392445105228
 51
154.7233116675239
  0
SPLINE
  5
67F5E
330
1F
100
AcDbEntity
  8
0
370
    -3
100
AcDbSpline
210
0.0
220
0.0
230
1.0
 70
     8
 71
     3
 72
    10
 73
     6
 74
     0
 42
0.000000001
 43
0.0000000001
 40
0.0
 40
0.0
 40
0.0
 40
0.0
 40
0.4531253338
 40
0.7184308313
 40
1.0
 40
1.0
 40
1.0
 40
1.0
 10
18610.91029187351
 20
-7334.387158295048
 30
0.0
 10
18610.85610160621
 20
-7334.501747251448
 30
0.0
 10
18610.85761349271
 20
-7334.720065952348
 30
0.0
 10
18610.93854515532
 20
-7334.985881918848
 30
0.0
 10
18611.00291274871
 20
-7335.12577278115
 30
0.0
 10
18611.03989099702
 20
-7335.195318751448
 30
0.0
  0
SPLINE
  5
67F5F
330
1F
100
AcDbEntity
  8
0
370
    -3
100
AcDbSpline
210
0.0
220
0.0
230
1.0
 70
     8
 71
     3
 72
     8
 73
     4
 74
     0
 42
0.000000001
 43
0.0000000001
 40
0.0
 40
0.0
 40
0.0
 40
0.0
 40
1.0
 40
1.0
 40
1.0
 40
1.0
 10
18611.01470202541
 20
-7334.251785878347
 30
0.0
 10
18610.99465337551
 20
-7334.268684098247
 30
0.0
 10
18610.97609769771
 20
-7334.287557949548
 30
0.0
 10
18610.95968944712
 20
-7334.308009539047
 30
0.0
  0
SPLINE
  5
67F60
330
1F
100
AcDbEntity
  8
0
370
    -3
100
AcDbSpline
210
0.0
220
0.0
230
1.0
 70
     8
 71
     3
 72
     9
 73
     5
 74
     0
 42
0.000000001
 43
0.0000000001
 40
0.0
 40
0.0
 40
0.0
 40
0.0
 40
0.2481940479
 40
1.0
 40
1.0
 40
1.0
 40
1.0
 10
18611.03989099702
 20
-7335.195318751448
 30
0.0
 10
18611.06630642882
 20
-7335.244998953047
 30
0.0
 10
18611.17446319252
 20
-7335.444239121945
 30
0.0
 10
18611.28993582111
 20
-7335.639540017448
 30
0.0
 10
18611.38126662902
 20
-7335.783440373546
 30
0.0
  0
SPLINE
  5
67F61
330
1F
100
AcDbEntity
  8
0
370
    -3
100
AcDbSpline
210
0.0
220
0.0
230
1.0
 70
     8
 71
     3
 72
     9
 73
     5
 74
     0
 42
0.000000001
 43
0.0000000001
 40
0.0
 40
0.0
 40
0.0
 40
0.0
 40
0.2455208546
 40
1.0
 40
1.0
 40
1.0
 40
1.0
 10
18611.38126662902
 20
-7335.783440373546
 30
0.0
 10
18611.46216155361
 20
-7335.910898005048
 30
0.0
 10
18611.80583668721
 20
-7336.420650708348
 30
0.0
 10
18612.21606475931
 20
-7336.887450040049
 30
0.0
 10
18612.56175227591
 20
-7337.19681166465
 30
0.0
  0
SPLINE
  5
67F62
330
1F
100
AcDbEntity
  8
0
370
    -3
100
AcDbSpline
210
0.0
220
0.0
230
1.0
 70
     8
 71
     3
 72
    17
 73
    13
 74
     0
 42
0.000000001
 43
0.0000000001
 40
0.0
 40
0.0
 40
0.0
 40
0.0
 40
0.004264989
 40
0.0170519402
 40
0.0382841941
 40
0.0678719754
 40
0.1056619017
 40
0.1514822931
 40
0.2664640229
 40
0.4109852136
 40
0.5829900683
 40
1.0
 40
1.0
 40
1.0
 40
1.0
 10
18688.07432081902
 20
-7351.954591358448
 30
0.0
 10
18688.07432081902
 20
-7351.956235205048
 30
0.0
 10
18688.07039175991
 20
-7351.942416942449
 30
0.0
 10
18688.06640471471
 20
-7351.936134574848
 30
0.0
 10
18688.05661156621
 20
-7351.909097031549
 30
0.0
 10
18688.04454137591
 20
-7351.879141265349
 30
0.0
 10
18688.02870504471
 20
-7351.837721191147
 30
0.0
 10
18688.00161972561
 20
-7351.766489173748
 30
0.0
 10
18687.96092515242
 20
-7351.655834311248
 30
0.0
 10
18687.90627013241
 20
-7351.498838725849
 30
0.0
 10
18687.81921698472
 20
-7351.229793604947
 30
0.0
 10
18687.75848388091
 20
-7351.010847696547
 30
0.0
 10
18687.72083768941
 20
-7350.85459135845
 30
0.0
  0
SPLINE
  5
67F63
330
1F
100
AcDbEntity
  8
0
370
    -3
100
AcDbSpline
210
0.0
220
0.0
230
1.0
 70
     8
 71
     3
 72
    16
 73
    12
 74
     0
 42
0.000000001
 43
0.0000000001
 40
0.0
 40
0.0
 40
0.0
 40
0.0
 40
0.0395811307
 40
0.0772200848
 40
0.1181646686
 40
0.1641353676
 40
0.2702845267
 40
0.3933826009
 40
0.5310192019
 40
0.6801618587
 40
1.0
 40
1.0
 40
1.0
 40
1.0
 10
18701.22910863531
 20
-7338.344795631248
 30
0.0
 10
18701.20913597571
 20
-7338.40022870115
 30
0.0
 10
18701.16242468191
 20
-7338.506065221547
 30
0.0
 10
18701.06125323792
 20
-7338.650980040049
 30
0.0
 10
18700.93480346892
 20
-7338.787081542647
 30
0.0
 10
18700.72057482221
 20
-7338.979107548148
 30
0.0
 10
18700.38551954671
 20
-7339.216935467248
 30
0.0
 10
18699.91160216302
 20
-7339.489274525047
 30
0.0
 10
18699.36287023262
 20
-7339.756991466446
 30
0.0
 10
18698.53088636832
 20
-7340.108770519248
 30
0.0
 10
18697.86984611771
 20
-7340.336642117446
 30
0.0
 10
18697.41432081901
 20
-7340.475154401047
 30
0.0
  0
SPLINE
  5
67F64
330
1F
100
AcDbEntity
  8
0
370
    -3
100
AcDbSpline
210
0.0
220
0.0
230
1.0
 70
     8
 71
     3
 72
     9
 73
     5
 74
     0
 42
0.000000001
 43
0.0000000001
 40
0.0
 40
0.0
 40
0.0
 40
0.0
 40
0.2672754513
 40
1.0
 40
1.0
 40
1.0
 40
1.0
 10
18611.52047540431
 20
-7334.112367713348
 30
0.0
 10
18611.50408688541
 20
-7334.112340536347
 30
0.0
 10
18611.44277856401
 20
-7334.113167114349
 30
0.0
 10
18611.38147223551
 20
-7334.117835157347
 30
0.0
 10
18611.33698166891
 20
-7334.124092961549
 30
0.0
  0
SPLINE
  5
67F65
330
1F
100
AcDbEntity
  8
0
370
    -3
100
AcDbSpline
210
0.0
220
0.0
230
1.0
 70
     8
 71
     3
 72
    13
 73
     9
 74
     0
 42
0.000000001
 43
0.0000000001
 40
0.0
 40
0.0
 40
0.0
 40
0.0
 40
0.2832835788
 40
0.4063003699000001
 40
0.5220254533
 40
0.634983422
 40
0.7497322451999999
 40
1.0
 40
1.0
 40
1.0
 40
1.0
 10
18700.36804633731
 20
-7337.214056174449
 30
0.0
 10
18700.52741784631
 20
-7337.219621550248
 30
0.0
 10
18700.76051141212
 20
-7337.264808830948
 30
0.0
 10
18701.01313401781
 20
-7337.419860738347
 30
0.0
 10
18701.15235897961
 20
-7337.563810956549
 30
0.0
 10
18701.24644874911
 20
-7337.735397163746
 30
0.0
 10
18701.31023385811
 20
-7337.99953294815
 30
0.0
 10
18701.27686393812
 20
-7338.212253291047
 30
0.0
 10
18701.22910863531
 20
-7338.344795631248
 30
0.0
  0
SPLINE
  5
67F66
330
1F
100
AcDbEntity
  8
0
370
    -3
100
AcDbSpline
210
0.0
220
0.0
230
1.0
 70
     8
 71
     3
 72
     9
 73
     5
 74
     0
 42
0.000000001
 43
0.0000000001
 40
0.0
 40
0.0
 40
0.0
 40
0.0
 40
0.240474389
 40
1.0
 40
1.0
 40
1.0
 40
1.0
 10
18615.10292281661
 20
-7338.52020103535
 30
0.0
 10
18615.16311475081
 20
-7338.535151668948
 30
0.0
 10
18615.41410397581
 20
-7338.594551108847
 30
0.0
 10
18615.66766333301
 20
-7338.642954073548
 30
0.0
 10
18615.86104543271
 20
-7338.674197175747
 30
0.0
  0
SPLINE
  5
67F67
330
1F
100
AcDbEntity
  8
0
370
    -3
100
AcDbSpline
210
0.0
220
0.0
230
1.0
 70
     8
 71
     3
 72
    14
 73
    10
 74
     0
 42
0.000000001
 43
0.0000000001
 40
0.0
 40
0.0
 40
0.0
 40
0.0
 40
0.1635980174
 40
0.3067839997
 40
0.4347123242000001
 40
0.5525466369
 40
0.6649708455
 40
0.7756799537000001
 40
1.0
 40
1.0
 40
1.0
 40
1.0
 10
18694.57432081951
 20
-7341.113888698648
 30
0.0
 10
18694.08130697621
 20
-7341.188130529449
 30
0.0
 10
18693.16295681211
 20
-7341.380175517847
 30
0.0
 10
18691.91501370702
 20
-7341.840880111347
 30
0.0
 10
18690.88381275541
 20
-7342.438488169547
 30
0.0
 10
18690.05304912051
 20
-7343.156632721246
 30
0.0
 10
18689.40455201481
 20
-7343.976044887847
 30
0.0
 10
18688.75233276131
 20
-7345.179670804347
 30
0.0
 10
18688.47148145911
 20
-7346.175041038849
 30
0.0
 10
18688.34525551472
 20
-7346.84691231525
 30
0.0
  0
SPLINE
  5
67F68
330
1F
100
AcDbEntity
  8
0
370
    -3
100
AcDbSpline
210
0.0
220
0.0
230
1.0
 70
     8
 71
     3
 72
    17
 73
    13
 74
     0
 42
0.000000001
 43
0.0000000001
 40
0.0
 40
0.0
 40
0.0
 40
0.0
 40
0.1607965749
 40
0.2308974017
 40
0.2963185949
 40
0.358630736
 40
0.4191572103000001
 40
0.5382799988000001
 40
0.6579168868
 40
0.7774304312
 40
0.8932294065999998
 40
1.0
 40
1.0
 40
1.0
 40
1.0
 10
18665.57432081902
 20
-7340.50177545525
 30
0.0
 10
18666.35088885412
 20
-7340.528893808649
 30
0.0
 10
18667.47297288191
 20
-7340.681584080947
 30
0.0
 10
18668.81907251572
 20
-7341.182762276348
 30
0.0
 10
18669.65847078691
 20
-7341.648223991647
 30
0.0
 10
18670.38052110791
 20
-7342.207359443946
 30
0.0
 10
18671.19268571411
 20
-7343.053630786245
 30
0.0
 10
18671.96981028911
 20
-7344.292379163547
 30
0.0
 10
18672.56325704241
 20
-7345.928046605248
 30
0.0
 10
18672.90029568611
 20
-7347.61457149265
 30
0.0
 10
18673.05169004251
 20
-7349.262738683949
 30
0.0
 10
18673.07432081902
 20
-7350.338627818146
 30
0.0
 10
18673.07432081902
 20
-7350.85459135845
 30
0.0
  0
SPLINE
  5
67F69
330
1F
100
AcDbEntity
  8
0
370
    -3
100
AcDbSpline
210
0.0
220
0.0
230
1.0
 70
     8
 71
     3
 72
    10
 73
     6
 74
     0
 42
0.000000001
 43
0.0000000001
 40
0.0
 40
0.0
 40
0.0
 40
0.0
 40
0.2504620486
 40
0.5285307236
 40
1.0
 40
1.0
 40
1.0
 40
1.0
 10
18687.72072822211
 20
-7350.854591369149
 30
0.0
 10
18687.65076069171
 20
-7350.571534162146
 30
0.0
 10
18687.55323448711
 20
-7349.959908883346
 30
0.0
 10
18687.61122819342
 20
-7348.788126269148
 30
0.0
 10
18687.88767628781
 20
-7347.948153020948
 30
0.0
 10
18688.09407868941
 20
-7347.439577929846
 30
0.0
  0
SPLINE
  5
67F6A
330
1F
100
AcDbEntity
  8
0
370
    -3
100
AcDbSpline
210
0.0
220
0.0
230
1.0
 70
     8
 71
     3
 72
    14
 73
    10
 74
     0
 42
0.000000001
 43
0.0000000001
 40
0.0
 40
0.0
 40
0.0
 40
0.0
 40
0.4229064668
 40
0.5948438426
 40
0.7382546376000001
 40
0.8516581048
 40
0.9336207611
 40
0.9832275071999999
 40
1.0
 40
1.0
 40
1.0
 40
1.0
 10
18688.09407868941
 20
-7347.439577929846
 30
0.0
 10
18688.12820271432
 20
-7347.355496403048
 30
0.0
 10
18688.17743487961
 20
-7347.237728414646
 30
0.0
 10
18688.23980931281
 20
-7347.092125098348
 30
0.0
 10
18688.27630720281
 20
-7347.007667892947
 30
0.0
 10
18688.30485432541
 20
-7346.940844150445
 30
0.0
 10
18688.32628241461
 20
-7346.892779338647
 30
0.0
 10
18688.33761809201
 20
-7346.863116404446
 30
0.0
 10
18688.34436633621
 20
-7346.850399581049
 30
0.0
 10
18688.34525551472
 20
-7346.84691231525
 30
0.0
  0
LWPOLYLINE
  5
67F6B
330
1F
100
AcDbEntity
  8
0
370
    -3
100
AcDbPolyline
 90
        3
 70
     0
 43
0.0
 10
18032.43220088234
 20
-7337.556642815751
 10
18032.43452765743
 20
-7337.612647393249
 10
18032.51121967983
 20
-7337.88378055005
  0
LINE
  5
67F6C
330
1F
100
AcDbEntity
  8
0
370
    -3
100
AcDbLine
 10
18032.43216840093
 20
-7337.554139418649
 30
0.0
 11
18032.43217280524
 21
-7337.556646697248
 31
0.0
  0
LINE
  5
67F6D
330
1F
100
AcDbEntity
  8
0
370
    -3
100
AcDbLine
 10
18034.93216840043
 20
-7350.85459135845
 30
0.0
 11
18034.93216840043
 21
-7355.354591358448
 31
0.0
  0
LINE
  5
67F6E
330
1F
100
AcDbEntity
  8
0
370
    -3
100
AcDbLine
 10
18032.43216840043
 20
-7337.554164936749
 30
0.0
 11
18032.43216840043
 21
-7335.022409149249
 31
0.0
  0
LINE
  5
67F6F
330
1F
100
AcDbEntity
  8
0
370
    -3
100
AcDbLine
 10
18032.43220442133
 20
-7335.015312213148
 30
0.0
 11
18032.43216840403
 21
-7335.02247982205
 31
0.0
  0
LINE
  5
67F70
330
1F
100
AcDbEntity
  8
0
370
    -3
100
AcDbLine
 10
18032.51121967983
 20
-7337.88378055005
 30
0.0
 11
18032.56414162373
 21
-7337.972416123951
 31
0.0
  0
LINE
  5
67F71
330
1F
100
AcDbEntity
  8
0
370
    -3
100
AcDbLine
 10
18032.56407283573
 20
-7337.97231802205
 30
0.0
 11
18032.56414162373
 21
-7337.972416123951
 31
0.0
  0
LINE
  5
67F72
330
1F
100
AcDbEntity
  8
0
370
    -3
100
AcDbLine
 10
18032.56407283573
 20
-7337.97231802205
 30
0.0
 11
18033.07840711433
 21
-7338.574269515349
 31
0.0
  0
LWPOLYLINE
  5
67F73
330
1F
100
AcDbEntity
  8
0
370
    -3
100
AcDbPolyline
 90
       22
 70
     0
 43
0.0
 10
18033.62558805258
 20
-7339.03703965749
 10
18033.63223905473
 20
-7339.04746704885
 10
18033.82223859923
 20
-7339.390178995349
 10
18034.01790457644
 20
-7339.812568878049
 10
18034.19522168134
 20
-7340.28450002145
 10
18034.34443567103
 20
-7340.781505231749
 10
18034.46875065593
 20
-7341.299721024251
 10
18034.57171568643
 20
-7341.836713591151
 10
18034.65659669803
 20
-7342.39117751035
 10
18034.72612737123
 20
-7342.961357894449
 10
18034.78260686804
 20
-7343.546606459049
 10
18034.82783081313
 20
-7344.146937582151
 10
18034.86311152823
 20
-7344.761665989951
 10
18034.88969391713
 20
-7345.390313554649
 10
18034.90880178974
 20
-7346.033216027951
 10
18034.92166095874
 20
-7346.69173586085
 10
18034.92955758524
 20
-7347.367590028749
 10
18034.93359293524
 20
-7348.061171676349
 10
18034.93473765984
 20
-7348.772937623249
 10
18034.93409905473
 20
-7349.50358641685
 10
18034.93290807654
 20
-7350.253739143351
 10
18034.93243651113
 20
-7350.85459137575
  0
LINE
  5
67F74
330
1F
100
AcDbEntity
  8
0
370
    -3
100
AcDbLine
 10
18033.07840711433
 20
-7338.574269515349
 30
0.0
 11
18033.62558805253
 21
-7339.037039657451
 31
0.0
  0
LWPOLYLINE
  5
67F75
330
1F
100
AcDbEntity
  8
0
370
    -3
100
AcDbPolyline
 90
       11
 70
     0
 43
0.0
 10
18034.07015552303
 20
-7334.167977500249
 10
18033.97262873533
 20
-7334.172808668949
 10
18033.62427794693
 20
-7334.19530011695
 10
18033.37505003793
 20
-7334.219695446751
 10
18033.19023799593
 20
-7334.24715933705
 10
18033.03586695623
 20
-7334.28268242445
 10
18032.88333388793
 20
-7334.33895316525
 10
18032.71174320653
 20
-7334.44553658905
 10
18032.53526662363
 20
-7334.64847038225
 10
18032.43581348923
 20
-7334.951086468551
 10
18032.43224417583
 20
-7335.015326619348
  0
LWPOLYLINE
  5
67F76
330
1F
100
AcDbEntity
  8
0
370
    -3
100
AcDbPolyline
 90
        5
 70
     0
 43
0.0
 10
18040.02084440963
 20
-7334.112752975649
 10
18038.72154644933
 20
-7334.114068626449
 10
18037.48638714263
 20
-7334.11724402785
 10
18036.32531722543
 20
-7334.12355606205
 10
18035.98374463893
 20
-7334.12641799555
  0
LINE
  5
67F77
330
1F
100
AcDbEntity
  8
0
370
    -3
100
AcDbLine
 10
18042.43216840043
 20
-7334.11236548315
 30
0.0
 11
18040.02084440963
 21
-7334.112752975649
 31
0.0
  0
SPLINE
  5
67F78
330
1F
100
AcDbEntity
  8
0
370
    -3
100
AcDbSpline
210
0.0
220
0.0
230
1.0
 70
     8
 71
     3
 72
     9
 73
     5
 74
     0
 42
0.000000001
 43
0.0000000001
 40
0.0
 40
0.0
 40
0.0
 40
0.0
 40
0.4179303446000001
 40
1.0
 40
1.0
 40
1.0
 40
1.0
 10
18034.06997173683
 20
-7334.167986129749
 30
0.0
 10
18034.33639522044
 20
-7334.155475156451
 30
0.0
 10
18034.97442168183
 20
-7334.137851523649
 30
0.0
 10
18035.61255249513
 20
-7334.129870741751
 30
0.0
 10
18035.98400482214
 20
-7334.126415575148
 30
0.0
  0
SPLINE
  5
67F79
330
1F
100
AcDbEntity
  8
0
370
    -3
100
AcDbSpline
210
0.0
220
0.0
230
1.0
 70
     8
 71
     3
 72
    13
 73
     9
 74
     0
 42
0.000000001
 43
0.0000000001
 40
0.0
 40
0.0
 40
0.0
 40
0.0
 40
0.123476887
 40
0.2472008704
 40
0.4984298487
 40
0.6252344489000001
 40
0.7511841249
 40
1.0
 40
1.0
 40
1.0
 40
1.0
 10
18032.55771213583
 20
-7335.422165480451
 30
0.0
 10
18032.70797635933
 20
-7335.637834582048
 30
0.0
 10
18033.05523079803
 20
-7336.038407126949
 30
0.0
 10
18033.87620926183
 20
-7336.715128142649
 30
0.0
 10
18034.81337196023
 20
-7337.243762139848
 30
0.0
 10
18035.80038471403
 20
-7337.664440941249
 30
0.0
 10
18036.80457509403
 20
-7338.028712096949
 30
0.0
 10
18037.57450232054
 20
-7338.243893035749
 30
0.0
 10
18038.09090241413
 20
-7338.361725395749
 30
0.0
  0
SPLINE
  5
67F7A
330
1F
100
AcDbEntity
  8
0
370
    -3
100
AcDbSpline
210
0.0
220
0.0
230
1.0
 70
     8
 71
     3
 72
     9
 73
     5
 74
     0
 42
0.000000001
 43
0.0000000001
 40
0.0
 40
0.0
 40
0.0
 40
0.0
 40
0.5024278957
 40
1.0
 40
1.0
 40
1.0
 40
1.0
 10
18042.43216840043
 20
-7338.820094291849
 30
0.0
 10
18041.69991017063
 20
-7338.820094291849
 30
0.0
 10
18040.24128305153
 20
-7338.754012993449
 30
0.0
 10
18038.79791149413
 20
-7338.52305098285
 30
0.0
 10
18038.09090241413
 20
-7338.361725395349
 30
0.0
  0
SPLINE
  5
67F7B
330
1F
100
AcDbEntity
  8
0
370
    -3
100
AcDbSpline
210
0.0
220
0.0
230
1.0
 70
     8
 71
     3
 72
     9
 73
     5
 74
     0
 42
0.000000001
 43
0.0000000001
 40
0.0
 40
0.0
 40
0.0
 40
0.0
 40
0.2513087603
 40
1.0
 40
1.0
 40
1.0
 40
1.0
 10
18032.43219954433
 20
-7335.022479855648
 30
0.0
 10
18032.43216146113
 20
-7335.05788002885
 30
0.0
 10
18032.44281473294
 20
-7335.198589624249
 30
0.0
 10
18032.49742274363
 20
-7335.33563417715
 30
0.0
 10
18032.55771213583
 20
-7335.422165480149
 30
0.0
  0
LWPOLYLINE
  5
67F7C
330
1F
100
AcDbEntity
  8
0
370
    -3
100
AcDbPolyline
 90
        3
 70
     0
 43
0.0
 10
18052.43864164794
 20
-7337.556642815751
 10
18052.43631487284
 20
-7337.612647393249
 10
18052.35962285044
 20
-7337.88378055005
  0
LINE
  5
67F7D
330
1F
100
AcDbEntity
  8
0
370
    -3
100
AcDbLine
 10
18052.43867412935
 20
-7337.554139418649
 30
0.0
 11
18052.43866972504
 21
-7337.556646697248
 31
0.0
  0
LINE
  5
67F7E
330
1F
100
AcDbEntity
  8
0
370
    -3
100
AcDbLine
 10
18049.93867412984
 20
-7350.85459135845
 30
0.0
 11
18049.93867412984
 21
-7355.354591358448
 31
0.0
  0
LINE
  5
67F7F
330
1F
100
AcDbEntity
  8
0
370
    -3
100
AcDbLine
 10
18052.43867412984
 20
-7337.554164936749
 30
0.0
 11
18052.43867412984
 21
-7335.022409149249
 31
0.0
  0
LINE
  5
67F80
330
1F
100
AcDbEntity
  8
0
370
    -3
100
AcDbLine
 10
18052.43863810895
 20
-7335.015312213148
 30
0.0
 11
18052.43867412625
 21
-7335.02247982205
 31
0.0
  0
LINE
  5
67F81
330
1F
100
AcDbEntity
  8
0
370
    -3
100
AcDbLine
 10
18052.35962285044
 20
-7337.88378055005
 30
0.0
 11
18052.30670090655
 21
-7337.972416123951
 31
0.0
  0
LINE
  5
67F82
330
1F
100
AcDbEntity
  8
0
370
    -3
100
AcDbLine
 10
18052.30676969454
 20
-7337.97231802205
 30
0.0
 11
18052.30670090655
 21
-7337.972416123951
 31
0.0
  0
LINE
  5
67F83
330
1F
100
AcDbEntity
  8
0
370
    -3
100
AcDbLine
 10
18052.30676969454
 20
-7337.97231802205
 30
0.0
 11
18051.79243541594
 21
-7338.574269515349
 31
0.0
  0
LWPOLYLINE
  5
67F84
330
1F
100
AcDbEntity
  8
0
370
    -3
100
AcDbPolyline
 90
       22
 70
     0
 43
0.0
 10
18051.24525447769
 20
-7339.03703965749
 10
18051.23860347555
 20
-7339.04746704885
 10
18051.04860393105
 20
-7339.390178995349
 10
18050.85293795384
 20
-7339.812568878049
 10
18050.67562084894
 20
-7340.28450002145
 10
18050.52640685924
 20
-7340.781505231749
 10
18050.40209187435
 20
-7341.299721024251
 10
18050.29912684385
 20
-7341.836713591151
 10
18050.21424583225
 20
-7342.39117751035
 10
18050.14471515905
 20
-7342.961357894449
 10
18050.08823566224
 20
-7343.546606459049
 10
18050.04301171715
 20
-7344.146937582151
 10
18050.00773100205
 20
-7344.761665989951
 10
18049.98114861314
 20
-7345.390313554649
 10
18049.96204074054
 20
-7346.033216027951
 10
18049.94918157154
 20
-7346.69173586085
 10
18049.94128494504
 20
-7347.367590028749
 10
18049.93724959504
 20
-7348.061171676349
 10
18049.93610487044
 20
-7348.772937623249
 10
18049.93674347555
 20
-7349.50358641685
 10
18049.93793445374
 20
-7350.253739143351
 10
18049.93840601914
 20
-7350.85459137575
  0
LINE
  5
67F85
330
1F
100
AcDbEntity
  8
0
370
    -3
100
AcDbLine
 10
18051.79243541594
 20
-7338.574269515349
 30
0.0
 11
18051.24525447775
 21
-7339.037039657451
 31
0.0
  0
LWPOLYLINE
  5
67F86
330
1F
100
AcDbEntity
  8
0
370
    -3
100
AcDbPolyline
 90
       11
 70
     0
 43
0.0
 10
18050.80068700725
 20
-7334.167977500249
 10
18050.89821379495
 20
-7334.172808668949
 10
18051.24656458334
 20
-7334.19530011695
 10
18051.49579249234
 20
-7334.219695446751
 10
18051.68060453435
 20
-7334.24715933705
 10
18051.83497557405
 20
-7334.28268242445
 10
18051.98750864235
 20
-7334.33895316525
 10
18052.15909932375
 20
-7334.44553658905
 10
18052.33557590664
 20
-7334.64847038225
 10
18052.43502904104
 20
-7334.951086468551
 10
18052.43859835445
 20
-7335.015326619348
  0
LWPOLYLINE
  5
67F87
330
1F
100
AcDbEntity
  8
0
370
    -3
100
AcDbPolyline
 90
        5
 70
     0
 43
0.0
 10
18044.84999812065
 20
-7334.112752975649
 10
18046.14929608095
 20
-7334.114068626449
 10
18047.38445538765
 20
-7334.11724402785
 10
18048.54552530485
 20
-7334.12355606205
 10
18048.88709789135
 20
-7334.12641799555
  0
LINE
  5
67F88
330
1F
100
AcDbEntity
  8
0
370
    -3
100
AcDbLine
 10
18042.43867412984
 20
-7334.11236548315
 30
0.0
 11
18044.84999812065
 21
-7334.112752975649
 31
0.0
  0
SPLINE
  5
67F89
330
1F
100
AcDbEntity
  8
0
370
    -3
100
AcDbSpline
210
0.0
220
0.0
230
1.0
 70
     8
 71
     3
 72
     9
 73
     5
 74
     0
 42
0.000000001
 43
0.0000000001
 40
0.0
 40
0.0
 40
0.0
 40
0.0
 40
0.4179303446000001
 40
1.0
 40
1.0
 40
1.0
 40
1.0
 10
18050.80087079345
 20
-7334.167986129749
 30
0.0
 10
18050.53444730984
 20
-7334.155475156451
 30
0.0
 10
18049.89642084844
 20
-7334.137851523649
 30
0.0
 10
18049.25829003515
 20
-7334.129870741751
 30
0.0
 10
18048.88683770814
 20
-7334.126415575148
 30
0.0
  0
SPLINE
  5
67F8A
330
1F
100
AcDbEntity
  8
0
370
    -3
100
AcDbSpline
210
0.0
220
0.0
230
1.0
 70
     8
 71
     3
 72
    13
 73
     9
 74
     0
 42
0.000000001
 43
0.0000000001
 40
0.0
 40
0.0
 40
0.0
 40
0.0
 40
0.123476887
 40
0.2472008704
 40
0.4984298487
 40
0.6252344489000001
 40
0.7511841249
 40
1.0
 40
1.0
 40
1.0
 40
1.0
 10
18052.31313039445
 20
-7335.422165480451
 30
0.0
 10
18052.16286617095
 20
-7335.637834582048
 30
0.0
 10
18051.81561173224
 20
-7336.038407126949
 30
0.0
 10
18050.99463326845
 20
-7336.715128142649
 30
0.0
 10
18050.05747057005
 20
-7337.243762139848
 30
0.0
 10
18049.07045781624
 20
-7337.664440941249
 30
0.0
 10
18048.06626743624
 20
-7338.028712096949
 30
0.0
 10
18047.29634020974
 20
-7338.243893035749
 30
0.0
 10
18046.77994011614
 20
-7338.361725395749
 30
0.0
  0
SPLINE
  5
67F8B
330
1F
100
AcDbEntity
  8
0
370
    -3
100
AcDbSpline
210
0.0
220
0.0
230
1.0
 70
     8
 71
     3
 72
     9
 73
     5
 74
     0
 42
0.000000001
 43
0.0000000001
 40
0.0
 40
0.0
 40
0.0
 40
0.0
 40
0.5024278957
 40
1.0
 40
1.0
 40
1.0
 40
1.0
 10
18042.43867412984
 20
-7338.820094291849
 30
0.0
 10
18043.17093235964
 20
-7338.820094291849
 30
0.0
 10
18044.62955947874
 20
-7338.754012993449
 30
0.0
 10
18046.07293103615
 20
-7338.52305098285
 30
0.0
 10
18046.77994011614
 20
-7338.361725395349
 30
0.0
  0
SPLINE
  5
67F8C
330
1F
100
AcDbEntity
  8
0
370
    -3
100
AcDbSpline
210
0.0
220
0.0
230
1.0
 70
     8
 71
     3
 72
     9
 73
     5
 74
     0
 42
0.000000001
 43
0.0000000001
 40
0.0
 40
0.0
 40
0.0
 40
0.0
 40
0.2513087603
 40
1.0
 40
1.0
 40
1.0
 40
1.0
 10
18052.43864298594
 20
-7335.022479855648
 30
0.0
 10
18052.43868106914
 20
-7335.05788002885
 30
0.0
 10
18052.42802779734
 20
-7335.198589624249
 30
0.0
 10
18052.37341978664
 20
-7335.33563417715
 30
0.0
 10
18052.31313039445
 20
-7335.422165480149
 30
0.0
  0
LWPOLYLINE
  5
67F8D
330
1F
100
AcDbEntity
  8
0
370
    -3
100
AcDbPolyline
 90
        3
 70
     0
 43
0.0
 10
18352.44514737736
 20
-7337.556642815751
 10
18352.44282060225
 20
-7337.612647393249
 10
18352.36612857986
 20
-7337.88378055005
  0
LINE
  5
67F8E
330
1F
100
AcDbEntity
  8
0
370
    -3
100
AcDbLine
 10
18352.44517985875
 20
-7337.554139418649
 30
0.0
 11
18352.44517545445
 21
-7337.556646697248
 31
0.0
  0
LINE
  5
67F8F
330
1F
100
AcDbEntity
  8
0
370
    -3
100
AcDbLine
 10
18349.94517985925
 20
-7350.85459135845
 30
0.0
 11
18349.94517985926
 21
-7355.354591358448
 31
0.0
  0
LINE
  5
67F90
330
1F
100
AcDbEntity
  8
0
370
    -3
100
AcDbLine
 10
18352.44517985925
 20
-7337.554164936749
 30
0.0
 11
18352.44517985925
 21
-7335.022409149249
 31
0.0
  0
LINE
  5
67F91
330
1F
100
AcDbEntity
  8
0
370
    -3
100
AcDbLine
 10
18352.44514383835
 20
-7335.015312213148
 30
0.0
 11
18352.44517985565
 21
-7335.02247982205
 31
0.0
  0
LINE
  5
67F92
330
1F
100
AcDbEntity
  8
0
370
    -3
100
AcDbLine
 10
18352.36612857986
 20
-7337.88378055005
 30
0.0
 11
18352.31320663595
 21
-7337.972416123951
 31
0.0
  0
LINE
  5
67F93
330
1F
100
AcDbEntity
  8
0
370
    -3
100
AcDbLine
 10
18352.31327542395
 20
-7337.97231802205
 30
0.0
 11
18352.31320663595
 21
-7337.972416123951
 31
0.0
  0
LINE
  5
67F94
330
1F
100
AcDbEntity
  8
0
370
    -3
100
AcDbLine
 10
18352.31327542395
 20
-7337.97231802205
 30
0.0
 11
18351.79894114536
 21
-7338.574269515349
 31
0.0
  0
LWPOLYLINE
  5
67F95
330
1F
100
AcDbEntity
  8
0
370
    -3
100
AcDbPolyline
 90
       22
 70
     0
 43
0.0
 10
18351.25176020711
 20
-7339.03703965749
 10
18351.24510920496
 20
-7339.04746704885
 10
18351.05510966045
 20
-7339.390178995349
 10
18350.85944368326
 20
-7339.812568878049
 10
18350.68212657836
 20
-7340.28450002145
 10
18350.53291258866
 20
-7340.781505231749
 10
18350.40859760376
 20
-7341.299721024251
 10
18350.30563257325
 20
-7341.836713591151
 10
18350.22075156165
 20
-7342.39117751035
 10
18350.15122088846
 20
-7342.961357894449
 10
18350.09474139166
 20
-7343.546606459049
 10
18350.04951744655
 20
-7344.146937582151
 10
18350.01423673145
 20
-7344.761665989951
 10
18349.98765434255
 20
-7345.390313554649
 10
18349.96854646996
 20
-7346.033216027951
 10
18349.95568730096
 20
-7346.69173586085
 10
18349.94779067446
 20
-7347.367590028749
 10
18349.94375532446
 20
-7348.061171676349
 10
18349.94261059986
 20
-7348.772937623249
 10
18349.94324920496
 20
-7349.50358641685
 10
18349.94444018315
 20
-7350.253739143351
 10
18349.94491174855
 20
-7350.85459137575
  0
LINE
  5
67F96
330
1F
100
AcDbEntity
  8
0
370
    -3
100
AcDbLine
 10
18351.79894114536
 20
-7338.574269515349
 30
0.0
 11
18351.25176020716
 21
-7339.037039657451
 31
0.0
  0
LWPOLYLINE
  5
67F97
330
1F
100
AcDbEntity
  8
0
370
    -3
100
AcDbPolyline
 90
       11
 70
     0
 43
0.0
 10
18350.80719273665
 20
-7334.167977500249
 10
18350.90471952435
 20
-7334.172808668949
 10
18351.25307031275
 20
-7334.19530011695
 10
18351.50229822176
 20
-7334.219695446751
 10
18351.68711026376
 20
-7334.24715933705
 10
18351.84148130345
 20
-7334.28268242445
 10
18351.99401437175
 20
-7334.33895316525
 10
18352.16560505316
 20
-7334.44553658905
 10
18352.34208163606
 20
-7334.64847038225
 10
18352.44153477045
 20
-7334.951086468551
 10
18352.44510408385
 20
-7335.015326619348
  0
LWPOLYLINE
  5
67F98
330
1F
100
AcDbEntity
  8
0
370
    -3
100
AcDbPolyline
 90
        5
 70
     0
 43
0.0
 10
18344.85650385006
 20
-7334.112752975649
 10
18346.15580181035
 20
-7334.114068626449
 10
18347.39096111706
 20
-7334.11724402785
 10
18348.55203103425
 20
-7334.12355606205
 10
18348.89360362076
 20
-7334.12641799555
  0
LINE
  5
67F99
330
1F
100
AcDbEntity
  8
0
370
    -3
100
AcDbLine
 10
18342.44517985925
 20
-7334.11236548315
 30
0.0
 11
18344.85650385006
 21
-7334.112752975649
 31
0.0
  0
SPLINE
  5
67F9A
330
1F
100
AcDbEntity
  8
0
370
    -3
100
AcDbSpline
210
0.0
220
0.0
230
1.0
 70
     8
 71
     3
 72
     9
 73
     5
 74
     0
 42
0.000000001
 43
0.0000000001
 40
0.0
 40
0.0
 40
0.0
 40
0.0
 40
0.4179303446000001
 40
1.0
 40
1.0
 40
1.0
 40
1.0
 10
18350.80737652285
 20
-7334.167986129749
 30
0.0
 10
18350.54095303926
 20
-7334.155475156451
 30
0.0
 10
18349.90292657786
 20
-7334.137851523649
 30
0.0
 10
18349.26479576456
 20
-7334.129870741751
 30
0.0
 10
18348.89334343755
 20
-7334.126415575148
 30
0.0
  0
SPLINE
  5
67F9B
330
1F
100
AcDbEntity
  8
0
370
    -3
100
AcDbSpline
210
0.0
220
0.0
230
1.0
 70
     8
 71
     3
 72
    13
 73
     9
 74
     0
 42
0.000000001
 43
0.0000000001
 40
0.0
 40
0.0
 40
0.0
 40
0.0
 40
0.123476887
 40
0.2472008704
 40
0.4984298487
 40
0.6252344489000001
 40
0.7511841249
 40
1.0
 40
1.0
 40
1.0
 40
1.0
 10
18352.31963612386
 20
-7335.422165480451
 30
0.0
 10
18352.16937190036
 20
-7335.637834582048
 30
0.0
 10
18351.82211746165
 20
-7336.038407126949
 30
0.0
 10
18351.00113899785
 20
-7336.715128142649
 30
0.0
 10
18350.06397629945
 20
-7337.243762139848
 30
0.0
 10
18349.07696354566
 20
-7337.664440941249
 30
0.0
 10
18348.07277316566
 20
-7338.028712096949
 30
0.0
 10
18347.30284593915
 20
-7338.243893035749
 30
0.0
 10
18346.78644584556
 20
-7338.361725395749
 30
0.0
  0
SPLINE
  5
67F9C
330
1F
100
AcDbEntity
  8
0
370
    -3
100
AcDbSpline
210
0.0
220
0.0
230
1.0
 70
     8
 71
     3
 72
     9
 73
     5
 74
     0
 42
0.000000001
 43
0.0000000001
 40
0.0
 40
0.0
 40
0.0
 40
0.0
 40
0.5024278957
 40
1.0
 40
1.0
 40
1.0
 40
1.0
 10
18342.44517985925
 20
-7338.820094291849
 30
0.0
 10
18343.17743808906
 20
-7338.820094291849
 30
0.0
 10
18344.63606520816
 20
-7338.754012993449
 30
0.0
 10
18346.07943676555
 20
-7338.52305098285
 30
0.0
 10
18346.78644584556
 20
-7338.361725395349
 30
0.0
  0
SPLINE
  5
67F9D
330
1F
100
AcDbEntity
  8
0
370
    -3
100
AcDbSpline
210
0.0
220
0.0
230
1.0
 70
     8
 71
     3
 72
     9
 73
     5
 74
     0
 42
0.000000001
 43
0.0000000001
 40
0.0
 40
0.0
 40
0.0
 40
0.0
 40
0.2513087603
 40
1.0
 40
1.0
 40
1.0
 40
1.0
 10
18352.44514871535
 20
-7335.022479855648
 30
0.0
 10
18352.44518679855
 20
-7335.05788002885
 30
0.0
 10
18352.43453352676
 20
-7335.198589624249
 30
0.0
 10
18352.37992551605
 20
-7335.33563417715
 30
0.0
 10
18352.31963612386
 20
-7335.422165480149
 30
0.0
  0
LWPOLYLINE
  5
67F9E
330
1F
100
AcDbEntity
  8
0
370
    -3
100
AcDbPolyline
 90
        3
 70
     0
 43
0.0
 10
18332.43870661175
 20
-7337.556642815751
 10
18332.44103338684
 20
-7337.612647393249
 10
18332.51772540925
 20
-7337.88378055005
  0
LINE
  5
67F9F
330
1F
100
AcDbEntity
  8
0
370
    -3
100
AcDbLine
 10
18332.43867413034
 20
-7337.554139418649
 30
0.0
 11
18332.43867853464
 21
-7337.556646697248
 31
0.0
  0
LINE
  5
67FA0
330
1F
100
AcDbEntity
  8
0
370
    -3
100
AcDbLine
 10
18334.93867412984
 20
-7350.85459135845
 30
0.0
 11
18334.93867412984
 21
-7355.354591358448
 31
0.0
  0
LINE
  5
67FA1
330
1F
100
AcDbEntity
  8
0
370
    -3
100
AcDbLine
 10
18332.43867412984
 20
-7337.554164936749
 30
0.0
 11
18332.43867412984
 21
-7335.022409149249
 31
0.0
  0
LINE
  5
67FA2
330
1F
100
AcDbEntity
  8
0
370
    -3
100
AcDbLine
 10
18332.43871015074
 20
-7335.015312213148
 30
0.0
 11
18332.43867413344
 21
-7335.02247982205
 31
0.0
  0
LINE
  5
67FA3
330
1F
100
AcDbEntity
  8
0
370
    -3
100
AcDbLine
 10
18332.51772540925
 20
-7337.88378055005
 30
0.0
 11
18332.57064735315
 21
-7337.972416123951
 31
0.0
  0
LINE
  5
67FA4
330
1F
100
AcDbEntity
  8
0
370
    -3
100
AcDbLine
 10
18332.57057856514
 20
-7337.97231802205
 30
0.0
 11
18332.57064735315
 21
-7337.972416123951
 31
0.0
  0
LINE
  5
67FA5
330
1F
100
AcDbEntity
  8
0
370
    -3
100
AcDbLine
 10
18332.57057856514
 20
-7337.97231802205
 30
0.0
 11
18333.08491284375
 21
-7338.574269515349
 31
0.0
  0
LWPOLYLINE
  5
67FA6
330
1F
100
AcDbEntity
  8
0
370
    -3
100
AcDbPolyline
 90
       22
 70
     0
 43
0.0
 10
18333.63209378199
 20
-7339.03703965749
 10
18333.63874478415
 20
-7339.04746704885
 10
18333.82874432864
 20
-7339.390178995349
 10
18334.02441030584
 20
-7339.812568878049
 10
18334.20172741074
 20
-7340.28450002145
 10
18334.35094140044
 20
-7340.781505231749
 10
18334.47525638534
 20
-7341.299721024251
 10
18334.57822141584
 20
-7341.836713591151
 10
18334.66310242744
 20
-7342.39117751035
 10
18334.73263310064
 20
-7342.961357894449
 10
18334.78911259744
 20
-7343.546606459049
 10
18334.83433654254
 20
-7344.146937582151
 10
18334.86961725764
 20
-7344.761665989951
 10
18334.89619964654
 20
-7345.390313554649
 10
18334.91530751914
 20
-7346.033216027951
 10
18334.92816668814
 20
-7346.69173586085
 10
18334.93606331464
 20
-7347.367590028749
 10
18334.94009866464
 20
-7348.061171676349
 10
18334.94124338924
 20
-7348.772937623249
 10
18334.94060478415
 20
-7349.50358641685
 10
18334.93941380594
 20
-7350.253739143351
 10
18334.93894224054
 20
-7350.85459137575
  0
LINE
  5
67FA7
330
1F
100
AcDbEntity
  8
0
370
    -3
100
AcDbLine
 10
18333.08491284375
 20
-7338.574269515349
 30
0.0
 11
18333.63209378195
 21
-7339.037039657451
 31
0.0
  0
LWPOLYLINE
  5
67FA8
330
1F
100
AcDbEntity
  8
0
370
    -3
100
AcDbPolyline
 90
       11
 70
     0
 43
0.0
 10
18334.07666125244
 20
-7334.167977500249
 10
18333.97913446474
 20
-7334.172808668949
 10
18333.63078367634
 20
-7334.19530011695
 10
18333.38155576734
 20
-7334.219695446751
 10
18333.19674372535
 20
-7334.24715933705
 10
18333.04237268564
 20
-7334.28268242445
 10
18332.88983961734
 20
-7334.33895316525
 10
18332.71824893595
 20
-7334.44553658905
 10
18332.54177235304
 20
-7334.64847038225
 10
18332.44231921864
 20
-7334.951086468551
 10
18332.43874990524
 20
-7335.015326619348
  0
LWPOLYLINE
  5
67FA9
330
1F
100
AcDbEntity
  8
0
370
    -3
100
AcDbPolyline
 90
        5
 70
     0
 43
0.0
 10
18340.02735013904
 20
-7334.112752975649
 10
18338.72805217874
 20
-7334.114068626449
 10
18337.49289287205
 20
-7334.11724402785
 10
18336.33182295485
 20
-7334.12355606205
 10
18335.99025036835
 20
-7334.12641799555
  0
LINE
  5
67FAA
330
1F
100
AcDbEntity
  8
0
370
    -3
100
AcDbLine
 10
18342.43867412984
 20
-7334.11236548315
 30
0.0
 11
18340.02735013904
 21
-7334.112752975649
 31
0.0
  0
SPLINE
  5
67FAB
330
1F
100
AcDbEntity
  8
0
370
    -3
100
AcDbSpline
210
0.0
220
0.0
230
1.0
 70
     8
 71
     3
 72
     9
 73
     5
 74
     0
 42
0.000000001
 43
0.0000000001
 40
0.0
 40
0.0
 40
0.0
 40
0.0
 40
0.4179303446000001
 40
1.0
 40
1.0
 40
1.0
 40
1.0
 10
18334.07647746624
 20
-7334.167986129749
 30
0.0
 10
18334.34290094984
 20
-7334.155475156451
 30
0.0
 10
18334.98092741125
 20
-7334.137851523649
 30
0.0
 10
18335.61905822454
 20
-7334.129870741751
 30
0.0
 10
18335.99051055154
 20
-7334.126415575148
 30
0.0
  0
SPLINE
  5
67FAC
330
1F
100
AcDbEntity
  8
0
370
    -3
100
AcDbSpline
210
0.0
220
0.0
230
1.0
 70
     8
 71
     3
 72
    13
 73
     9
 74
     0
 42
0.000000001
 43
0.0000000001
 40
0.0
 40
0.0
 40
0.0
 40
0.0
 40
0.123476887
 40
0.2472008704
 40
0.4984298487
 40
0.6252344489000001
 40
0.7511841249
 40
1.0
 40
1.0
 40
1.0
 40
1.0
 10
18332.56421786525
 20
-7335.422165480451
 30
0.0
 10
18332.71448208875
 20
-7335.637834582048
 30
0.0
 10
18333.06173652744
 20
-7336.038407126949
 30
0.0
 10
18333.88271499124
 20
-7336.715128142649
 30
0.0
 10
18334.81987768965
 20
-7337.243762139848
 30
0.0
 10
18335.80689044345
 20
-7337.664440941249
 30
0.0
 10
18336.81108082345
 20
-7338.028712096949
 30
0.0
 10
18337.58100804994
 20
-7338.243893035749
 30
0.0
 10
18338.09740814355
 20
-7338.361725395749
 30
0.0
  0
SPLINE
  5
67FAD
330
1F
100
AcDbEntity
  8
0
370
    -3
100
AcDbSpline
210
0.0
220
0.0
230
1.0
 70
     8
 71
     3
 72
     9
 73
     5
 74
     0
 42
0.000000001
 43
0.0000000001
 40
0.0
 40
0.0
 40
0.0
 40
0.0
 40
0.5024278957
 40
1.0
 40
1.0
 40
1.0
 40
1.0
 10
18342.43867412984
 20
-7338.820094291849
 30
0.0
 10
18341.70641590004
 20
-7338.820094291849
 30
0.0
 10
18340.24778878094
 20
-7338.754012993449
 30
0.0
 10
18338.80441722354
 20
-7338.52305098285
 30
0.0
 10
18338.09740814355
 20
-7338.361725395349
 30
0.0
  0
SPLINE
  5
67FAE
330
1F
100
AcDbEntity
  8
0
370
    -3
100
AcDbSpline
210
0.0
220
0.0
230
1.0
 70
     8
 71
     3
 72
     9
 73
     5
 74
     0
 42
0.000000001
 43
0.0000000001
 40
0.0
 40
0.0
 40
0.0
 40
0.0
 40
0.2513087603
 40
1.0
 40
1.0
 40
1.0
 40
1.0
 10
18332.43870527374
 20
-7335.022479855648
 30
0.0
 10
18332.43866719054
 20
-7335.05788002885
 30
0.0
 10
18332.44932046234
 20
-7335.198589624249
 30
0.0
 10
18332.50392847304
 20
-7335.33563417715
 30
0.0
 10
18332.56421786525
 20
-7335.422165480149
 30
0.0
  0
SPLINE
  5
67FAF
330
1F
100
AcDbEntity
  8
0
370
    -3
100
AcDbSpline
210
0.0
220
0.0
230
1.0
 70
     8
 71
     3
 72
     8
 73
     4
 74
     0
 42
0.000000001
 43
0.0000000001
 40
0.0
 40
0.0
 40
0.0
 40
0.0
 40
1.0
 40
1.0
 40
1.0
 40
1.0
 10
18210.89982478294
 20
-7280.48141153745
 30
0.0
 10
18208.25606191315
 20
-7283.433027712549
 30
0.0
 10
18206.60065623405
 20
-7284.68394765195
 30
0.0
 10
18204.49743546344
 20
-7285.775716269249
 30
0.0
  0
SPLINE
  5
67FB0
330
1F
100
AcDbEntity
  8
0
370
    -3
100
AcDbSpline
210
0.0
220
0.0
230
1.0
 70
     8
 71
     3
 72
     8
 73
     4
 74
     0
 42
0.000000001
 43
0.0000000001
 40
0.0
 40
0.0
 40
0.0
 40
0.0
 40
1.0
 40
1.0
 40
1.0
 40
1.0
 10
18210.89982478294
 20
-7280.48141153745
 30
0.0
 10
18213.15085634334
 20
-7277.513474366649
 30
0.0
 10
18214.50121868504
 20
-7273.82833833005
 30
0.0
 10
18214.93908503974
 20
-7269.35459135845
 30
0.0
  0
LWPOLYLINE
  5
67FB2
330
1F
100
AcDbEntity
  8
0
370
    -3
100
AcDbPolyline
 90
       15
 70
     0
 43
0.0
 10
18032.43870487584
 20
-7070.129236961647
 10
18032.46004293404
 20
-7071.067320553547
 10
18032.56631121344
 20
-7072.26867089995
 10
18032.78852096374
 20
-7073.39985631465
 10
18033.14924434494
 20
-7074.396753401348
 10
18033.64354604544
 20
-7075.194559210647
 10
18034.27551324544
 20
-7075.801600490446
 10
18035.07538590444
 20
-7076.239226888747
 10
18036.01721355024
 20
-7076.516591074749
 10
18037.05865195694
 20
-7076.674067930651
 10
18038.15446354104
 20
-7076.755855230051
 10
18039.29363082424
 20
-7076.794933980547
 10
18040.45620882974
 20
-7076.810170678448
 10
18041.62800758724
 20
-7076.81399211675
 10
18042.43867412984
 20
-7076.814207222746
  0
LINE
  5
67FB3
330
1F
100
AcDbEntity
  8
0
370
    -3
100
AcDbLine
 10
18032.43867412984
 20
-6997.629210612553
 30
0.0
 11
18032.43867412984
 21
-7070.129210594952
 31
0.0
  0
LWPOLYLINE
  5
67FB4
330
1F
100
AcDbEntity
  8
0
370
    -3
100
AcDbPolyline
 90
       11
 70
     0
 43
0.0
 10
18052.43864365754
 20
-6997.629237794147
 10
18052.36446135944
 20
-6995.874273282051
 10
18052.08797602734
 20
-6993.988737515549
 10
18051.59262319004
 20
-6992.25744139525
 10
18050.86563877934
 20
-6990.704235992952
 10
18049.91304217854
 20
-6989.371812192451
 10
18048.76004598854
 20
-6988.289292964049
 10
18047.42901128724
 20
-6987.457590882548
 10
18045.91766797084
 20
-6986.86302300575
 10
18044.21204254854
 20
-6986.503031829646
 10
18042.43867412984
 20
-6986.389957055549
  0
LINE
  5
67FB5
330
1F
100
AcDbEntity
  8
0
370
    -3
100
AcDbLine
 10
18052.43867412984
 20
-7070.129210594952
 30
0.0
 11
18052.43867412984
 21
-6997.629210612553
 31
0.0
  0
LWPOLYLINE
  5
67FB6
330
1F
100
AcDbEntity
  8
0
370
    -3
100
AcDbPolyline
 90
       11
 70
     0
 43
0.0
 10
18042.43867412984
 20
-6986.389957055549
 10
18040.66530571114
 20
-6986.503031829646
 10
18038.95968028884
 20
-6986.86302300575
 10
18037.44833697254
 20
-6987.457590882548
 10
18036.11730227124
 20
-6988.289292964049
 10
18034.96430608124
 20
-6989.371812192451
 10
18034.01170948044
 20
-6990.704235992952
 10
18033.28472506974
 20
-6992.25744139525
 10
18032.78937223244
 20
-6993.988737515549
 10
18032.51288690034
 20
-6995.874273282051
 10
18032.43870460214
 20
-6997.629237794147
  0
LWPOLYLINE
  5
67FB7
330
1F
100
AcDbEntity
  8
0
370
    -3
100
AcDbPolyline
 90
       11
 70
     0
 43
0.0
 10
18342.43867412984
 20
-6986.389957055549
 10
18340.66530571114
 20
-6986.503031829646
 10
18338.95968028884
 20
-6986.86302300575
 10
18337.44833697254
 20
-6987.457590882548
 10
18336.11730227124
 20
-6988.289292964049
 10
18334.96430608124
 20
-6989.371812192451
 10
18334.01170948044
 20
-6990.704235992952
 10
18333.28472506974
 20
-6992.25744139525
 10
18332.78937223244
 20
-6993.988737515549
 10
18332.51288690034
 20
-6995.874273282051
 10
18332.43870460214
 20
-6997.629237794147
  0
LINE
  5
67FB8
330
1F
100
AcDbEntity
  8
0
370
    -3
100
AcDbLine
 10
18169.93867412984
 20
-7068.604780966049
 30
0.0
 11
18169.93885220034
 21
-7173.343864565648
 31
0.0
  0
LINE
  5
67FB9
330
1F
100
AcDbEntity
  8
0
370
    -3
100
AcDbLine
 10
18169.93867412984
 20
-7007.104780947249
 30
0.0
 11
18169.93867412984
 21
-7068.604780966049
 31
0.0
  0
LWPOLYLINE
  5
67FBA
330
1F
100
AcDbEntity
  8
0
370
    -3
100
AcDbPolyline
 90
       15
 70
     0
 43
0.0
 10
18042.43867412984
 20
-7076.814207222746
 10
18043.24934067254
 20
-7076.81399211675
 10
18044.42113943004
 20
-7076.810170678448
 10
18045.58371743554
 20
-7076.794933980547
 10
18046.72288471874
 20
-7076.755855230051
 10
18047.81869630284
 20
-7076.674067930651
 10
18048.86013470954
 20
-7076.516591074749
 10
18049.80196235524
 20
-7076.239226888747
 10
18050.60183501424
 20
-7075.801600490446
 10
18051.23380221424
 20
-7075.194559210647
 10
18051.72810391484
 20
-7074.396753401348
 10
18052.08882729604
 20
-7073.39985631465
 10
18052.31103704634
 20
-7072.26867089995
 10
18052.41730532564
 20
-7071.067320553547
 10
18052.43864338394
 20
-7070.129236961647
  0
LWPOLYLINE
  5
67FBB
330
1F
100
AcDbEntity
  8
0
370
    -3
100
AcDbPolyline
 90
       15
 70
     0
 43
0.0
 10
18342.43867412984
 20
-7076.814207222746
 10
18343.24934067254
 20
-7076.81399211675
 10
18344.42113943004
 20
-7076.810170678448
 10
18345.58371743554
 20
-7076.794933980547
 10
18346.72288471874
 20
-7076.755855230051
 10
18347.81869630284
 20
-7076.674067930651
 10
18348.86013470954
 20
-7076.516591074749
 10
18349.80196235525
 20
-7076.239226888747
 10
18350.60183501424
 20
-7075.801600490446
 10
18351.23380221424
 20
-7075.194559210647
 10
18351.72810391484
 20
-7074.396753401348
 10
18352.08882729604
 20
-7073.39985631465
 10
18352.31103704634
 20
-7072.26867089995
 10
18352.41730532564
 20
-7071.067320553547
 10
18352.43864338394
 20
-7070.129236961647
  0
LINE
  5
67FBC
330
1F
100
AcDbEntity
  8
0
370
    -3
100
AcDbLine
 10
18214.93867412984
 20
-7007.104780947249
 30
0.0
 11
18214.93867412984
 21
-7068.604780966049
 31
0.0
  0
LINE
  5
67FBD
330
1F
100
AcDbEntity
  8
0
370
    -3
100
AcDbLine
 10
18214.93867412984
 20
-7068.604780966049
 30
0.0
 11
18214.93849605934
 21
-7173.343864565648
 31
0.0
  0
LWPOLYLINE
  5
67FBE
330
1F
100
AcDbEntity
  8
0
370
    -3
100
AcDbPolyline
 90
       15
 70
     0
 43
0.0
 10
18332.43870487584
 20
-7070.129236961647
 10
18332.46004293404
 20
-7071.067320553547
 10
18332.56631121344
 20
-7072.26867089995
 10
18332.78852096374
 20
-7073.39985631465
 10
18333.14924434494
 20
-7074.396753401348
 10
18333.64354604544
 20
-7075.194559210647
 10
18334.27551324544
 20
-7075.801600490446
 10
18335.07538590444
 20
-7076.239226888747
 10
18336.01721355024
 20
-7076.516591074749
 10
18337.05865195694
 20
-7076.674067930651
 10
18338.15446354104
 20
-7076.755855230051
 10
18339.29363082424
 20
-7076.794933980547
 10
18340.45620882974
 20
-7076.810170678448
 10
18341.62800758724
 20
-7076.81399211675
 10
18342.43867412984
 20
-7076.814207222746
  0
LINE
  5
67FBF
330
1F
100
AcDbEntity
  8
0
370
    -3
100
AcDbLine
 10
18332.43867412984
 20
-6997.629210612553
 30
0.0
 11
18332.43867412984
 21
-7070.129210594952
 31
0.0
  0
LWPOLYLINE
  5
67FC0
330
1F
100
AcDbEntity
  8
0
370
    -3
100
AcDbPolyline
 90
       11
 70
     0
 43
0.0
 10
18352.43864365754
 20
-6997.629237794147
 10
18352.36446135944
 20
-6995.874273282051
 10
18352.08797602734
 20
-6993.988737515549
 10
18351.59262319004
 20
-6992.25744139525
 10
18350.86563877934
 20
-6990.704235992952
 10
18349.91304217854
 20
-6989.371812192451
 10
18348.76004598854
 20
-6988.289292964049
 10
18347.42901128724
 20
-6987.457590882548
 10
18345.91766797084
 20
-6986.86302300575
 10
18344.21204254854
 20
-6986.503031829646
 10
18342.43867412984
 20
-6986.389957055549
  0
LINE
  5
67FC1
330
1F
100
AcDbEntity
  8
0
370
    -3
100
AcDbLine
 10
18352.43867412984
 20
-7070.129210594952
 30
0.0
 11
18352.43867412984
 21
-6997.629210612553
 31
0.0
  0
ARC
  5
67FC2
330
1F
100
AcDbEntity
  8
0
370
    -3
100
AcDbCircle
 10
18192.43867412984
 20
-7007.104780947249
 30
0.0
 40
27.5
100
AcDbArc
 50
324.9528467643688
 51
215.0471532356311
  0
ARC
  5
67FC3
330
1F
100
AcDbEntity
  8
0
370
    -3
100
AcDbCircle
 10
18342.43867412984
 20
-7007.104780947249
 30
0.0
 40
27.5
100
AcDbArc
 50
291.3263140873555
 51
248.6736859126444
  0
ARC
  5
67FC4
330
1F
100
AcDbEntity
  8
0
370
    -3
100
AcDbCircle
 10
18042.43867412984
 20
-7007.104780947249
 30
0.0
 40
27.5
100
AcDbArc
 50
291.3263140873555
 51
248.6736859126444
  0
ARC
  5
67FC5
330
1F
100
AcDbEntity
  8
0
370
    -3
100
AcDbCircle
 10
18342.43867412984
 20
-7007.104780947249
 30
0.0
 40
22.5
100
AcDbArc
 50
296.4486390655917
 51
243.5513609344083
  0
ARC
  5
67FC6
330
1F
100
AcDbEntity
  8
0
370
    -3
100
AcDbCircle
 10
18042.43867412984
 20
-7007.104780947249
 30
0.0
 40
22.5
100
AcDbArc
 50
296.4486390655917
 51
243.5513609344083
  0
ARC
  5
67FC7
330
1F
100
AcDbEntity
  8
0
370
    -3
100
AcDbCircle
 10
18192.43867412984
 20
-7007.104780947249
 30
0.0
 40
22.5
100
AcDbArc
 50
0.0
 51
180.0
  0
SPLINE
  5
67FC8
330
1F
100
AcDbEntity
  8
0
370
    -3
100
AcDbSpline
210
0.0
220
0.0
230
1.0
 70
     8
 71
     3
 72
    23
 73
    19
 74
     0
 42
0.000000001
 43
0.0000000001
 40
0.0
 40
0.0
 40
0.0
 40
0.0
 40
0.062587888
 40
0.1251806814
 40
0.1877951238
 40
0.2504131504
 40
0.3129727396
 40
0.375421799
 40
0.4379341140000001
 40
0.5002360215000001
 40
0.5624073644
 40
0.6247191212
 40
0.6872068841
 40
0.7496518729
 40
0.8121585581999999
 40
0.8747394404999999
 40
0.9373601209
 40
1.0
 40
1.0
 40
1.0
 40
1.0
 10
18192.43867412994
 20
-7195.104782131548
 30
0.0
 10
18193.29990692594
 20
-7195.104782127147
 30
0.0
 10
18195.02244132104
 20
-7195.10367043135
 30
0.0
 10
18197.60656571164
 20
-7195.103017607948
 30
0.0
 10
18200.19113735054
 20
-7195.107741566649
 30
0.0
 10
18202.77511632384
 20
-7195.11071865785
 30
0.0
 10
18205.35734011744
 20
-7195.105041941946
 30
0.0
 10
18207.93614939774
 20
-7195.09978132315
 30
0.0
 10
18210.51522008654
 20
-7194.796149323451
 30
0.0
 10
18212.88999346034
 20
-7193.594036384848
 30
0.0
 10
18214.41008465544
 20
-7191.395481854347
 30
0.0
 10
18214.91213820434
 20
-7188.833219003548
 30
0.0
 10
18214.93527243464
 20
-7186.256955238551
 30
0.0
 10
18214.93946611284
 20
-7183.677653849152
 30
0.0
 10
18214.93896593994
 20
-7181.097152780847
 30
0.0
 10
18214.93727039814
 20
-7178.514212718646
 30
0.0
 10
18214.93777747184
 20
-7175.929445215448
 30
0.0
 10
18214.93831655504
 20
-7174.205812778947
 30
0.0
 10
18214.93831855354
 20
-7173.34386456545
 30
0.0
  0
SPLINE
  5
67FC9
330
1F
100
AcDbEntity
  8
0
370
    -3
100
AcDbSpline
210
0.0
220
0.0
230
1.0
 70
     8
 71
     3
 72
    23
 73
    19
 74
     0
 42
0.000000001
 43
0.0000000001
 40
0.0
 40
0.0
 40
0.0
 40
0.0
 40
0.062587888
 40
0.1251806814
 40
0.1877951238
 40
0.2504131504
 40
0.3129727396
 40
0.375421799
 40
0.4379341140000001
 40
0.5002360215000001
 40
0.5624073644
 40
0.6247191212
 40
0.6872068841
 40
0.7496518729
 40
0.8121585581999999
 40
0.8747394404999999
 40
0.9373601209
 40
1.0
 40
1.0
 40
1.0
 40
1.0
 10
18192.43867412994
 20
-7195.104782131548
 30
0.0
 10
18191.57744133384
 20
-7195.104782127147
 30
0.0
 10
18189.85490693884
 20
-7195.10367043135
 30
0.0
 10
18187.27078254814
 20
-7195.103017607948
 30
0.0
 10
18184.68621090924
 20
-7195.107741566649
 30
0.0
 10
18182.10223193604
 20
-7195.11071865785
 30
0.0
 10
18179.52000814234
 20
-7195.105041941946
 30
0.0
 10
18176.94119886204
 20
-7195.09978132315
 30
0.0
 10
18174.36212817324
 20
-7194.796149323451
 30
0.0
 10
18171.98735479944
 20
-7193.594036384948
 30
0.0
 10
18170.46726360434
 20
-7191.395481854347
 30
0.0
 10
18169.96521005544
 20
-7188.833219003548
 30
0.0
 10
18169.94207582514
 20
-7186.256955238551
 30
0.0
 10
18169.93788214684
 20
-7183.677653849246
 30
0.0
 10
18169.93838231984
 20
-7181.097152780847
 30
0.0
 10
18169.94007786164
 20
-7178.514212718646
 30
0.0
 10
18169.93957078794
 20
-7175.929445215448
 30
0.0
 10
18169.93903170464
 20
-7174.205812778947
 30
0.0
 10
18169.93902970624
 20
-7173.34386456545
 30
0.0
  0
ENDSEC
  0
SECTION
  2
OBJECTS
  0
DICTIONARY
  5
C
330
0
100
AcDbDictionary
281
     1
  3
ACAD_CIP_PREVIOUS_PRODUCT_INFO
350
682A1
  3
ACAD_COLOR
350
120E
  3
ACAD_DETAILVIEWSTYLE
350
6829C
  3
ACAD_GROUP
350
D
  3
ACAD_LAYOUT
350
1A
  3
ACAD_MATERIAL
350
120D
  3
ACAD_MLEADERSTYLE
350
68298
  3
ACAD_MLINESTYLE
350
17
  3
ACAD_PLOTSETTINGS
350
19
  3
ACAD_PLOTSTYLENAME
350
E
  3
ACAD_SCALELIST
350
68286
  3
ACAD_SECTIONVIEWSTYLE
350
6829A
  3
ACAD_TABLESTYLE
350
56CB6
  3
ACAD_VISUALSTYLE
350
56CA5
  3
AcadDim
350
6131
  3
ACDB_RECOMPOSE_DATA
350
682CC
  3
AcDbVariableDictionary
350
CC
  3
AcDsDecomposeData
350
682D2
  3
ASE_INDEX_DICTIONARY
350
384F3
  0
DICTIONARY
  5
68265
330
8
100
AcDbDictionary
280
     1
281
     1
  0
DICTIONARY
  5
6588
330
2
100
AcDbDictionary
280
     1
281
     1
  3
ACAD_LAYERFILTERS
360
67DC
  3
ACAD_LAYERSTATES
360
6589
  0
DICTIONARY
  5
682A7
330
10
100
AcDbDictionary
280
     1
281
     1
  3
ADSK_XREC_LAYER_RECONCILED
360
682A8
  0
DICTIONARY
  5
25F1
330
1F
100
AcDbDictionary
280
     1
281
     1
  3
ACAD_SORTENTS
360
57579
  0
XRECORD
  5
682A1
102
{ACAD_REACTORS
330
C
102
}
330
C
100
AcDbXrecord
280
     1
300
ACD
300
2021
300

  0
DICTIONARY
  5
120E
102
{ACAD_REACTORS
330
C
102
}
330
C
100
AcDbDictionary
281
     1
  0
DICTIONARY
  5
6829C
102
{ACAD_REACTORS
330
C
102
}
330
C
100
AcDbDictionary
281
     1
  3
Metric50
350
6829D
  0
DICTIONARY
  5
D
102
{ACAD_REACTORS
330
C
102
}
330
C
100
AcDbDictionary
281
     1
  0
DICTIONARY
  5
1A
102
{ACAD_REACTORS
330
C
102
}
330
C
100
AcDbDictionary
281
     1
  3
Layout1
350
682A3
  3
Model
350
22
1001
AcadStringInfo
1000
MIFCodePage
1070
     5
  0
DICTIONARY
  5
120D
102
{ACAD_REACTORS
330
C
102
}
330
C
100
AcDbDictionary
281
     1
  3
ByBlock
350
56CA3
  3
ByLayer
350
56CA2
  3
Global
350
56CA4
  0
DICTIONARY
  5
68298
102
{ACAD_REACTORS
330
C
102
}
330
C
100
AcDbDictionary
281
     1
  3
Standard
350
68299
  0
DICTIONARY
  5
17
102
{ACAD_REACTORS
330
C
102
}
330
C
100
AcDbDictionary
281
     1
  3
Standard
350
18
  0
DICTIONARY
  5
19
102
{ACAD_REACTORS
330
C
102
}
330
C
100
AcDbDictionary
281
     1
  0
ACDBDICTIONARYWDFLT
  5
E
102
{ACAD_REACTORS
330
C
102
}
330
C
100
AcDbDictionary
281
     1
  3
Normal
350
F
100
AcDbDictionaryWithDefault
340
F
  0
DICTIONARY
  5
68286
102
{ACAD_REACTORS
330
C
102
}
330
C
100
AcDbDictionary
281
     1
  3
A0
350
68287
  3
A1
350
68288
  3
A2
350
68289
  3
A3
350
6828A
  3
A4
350
6828B
  3
A5
350
6828C
  3
A6
350
6828D
  3
A7
350
6828E
  3
A8
350
6828F
  3
A9
350
68290
  3
B0
350
68291
  3
B1
350
68292
  3
B2
350
68293
  3
B3
350
68294
  3
B4
350
68295
  3
B5
350
68296
  3
B6
350
68297
  0
DICTIONARY
  5
6829A
102
{ACAD_REACTORS
330
C
102
}
330
C
100
AcDbDictionary
281
     1
  3
Metric50
350
6829B
  0
DICTIONARY
  5
56CB6
102
{ACAD_REACTORS
330
C
102
}
330
C
100
AcDbDictionary
281
     1
  3
Standard
350
56CB7
  0
DICTIONARY
  5
56CA5
102
{ACAD_REACTORS
330
C
102
}
330
C
100
AcDbDictionary
281
     1
  3
2dWireframe
350
56CAB
  3
3D Hidden
350
56CAD
  3
3dWireframe
350
56CAC
  3
Basic
350
56CAA
  3
Brighten
350
56CB1
  3
ColorChange
350
56CB5
  3
Conceptual
350
56CAE
  3
Dim
350
56CB0
  3
EdgeColorOff
350
68284
  3
Facepattern
350
56CB4
  3
Flat
350
56CA6
  3
FlatWithEdges
350
56CA7
  3
Gouraud
350
56CA8
  3
GouraudWithEdges
350
56CA9
  3
Hidden
350
6827C
  3
JitterOff
350
68282
  3
Linepattern
350
56CB3
  3
OverhangOff
350
68283
  3
Realistic
350
56CAF
  3
Shaded
350
68281
  3
Shaded with edges
350
68280
  3
Shades of Gray
350
6827D
  3
Sketchy
350
6827E
  3
Thicken
350
56CB2
  3
Wireframe
350
6827B
  3
X-Ray
350
6827F
  0
XRECORD
  5
6131
102
{ACAD_REACTORS
330
C
102
}
330
C
100
AcDbXrecord
280
     1
 90
   990106
  3

 60
     0
 61
     0
 62
     1
 63
     3
 64
     0
 65
     0
 66
     0
 67
     3
 68
     1
 69
     0
 70
     0
 71
     0
 72
     0
 40
0.0
170
     0
  0
XRECORD
  5
682CC
102
{ACAD_REACTORS
330
C
102
}
330
C
100
AcDbXrecord
280
     1
 90
        1
330
56CB7
  0
DICTIONARY
  5
CC
102
{ACAD_REACTORS
330
C
102
}
330
C
100
AcDbDictionary
281
     1
  3
CANNOSCALE
350
682B5
  3
CMLEADERSTYLE
350
682B1
  3
CTABLESTYLE
350
575A8
  3
CVIEWDETAILSTYLE
350
682B2
  3
CVIEWSECTIONSTYLE
350
682B3
  3
DIMASSOC
350
CE
  3
HIDETEXT
350
CD
  3
INDEXCTL
350
68279
  3
LAYEREVAL
350
682B7
  3
LAYERNOTIFY
350
682B8
  3
LIGHTINGUNITS
350
682B6
  3
MSLTSCALE
350
682B4
  3
SORTENTS
350
68278
  0
DICTIONARY
  5
682D2
102
{ACAD_REACTORS
330
C
102
}
330
C
100
AcDbDictionary
281
     1
  3
AcDsRecords
350
682D4
  3
AcDsSchemas
350
682D3
1001
ACAD
1070
     2
  0
DICTIONARY
  5
384F3
102
{ACAD_REACTORS
330
C
102
}
330
C
100
AcDbDictionary
281
     1
  3
ASEBlockHierarchyIndexRecord
350
384F4
1001
DCO15
1040
1684138129.812
  0
DICTIONARY
  5
67DC
102
{ACAD_REACTORS
330
6588
102
}
330
6588
100
AcDbDictionary
281
     1
  0
DICTIONARY
  5
6589
102
{ACAD_REACTORS
330
6588
102
}
330
6588
100
AcDbDictionary
281
     1
  0
XRECORD
  5
682A8
102
{ACAD_REACTORS
330
682A7
102
}
330
682A7
100
AcDbXrecord
280
     1
290
     1
  0
SORTENTSTABLE
  5
57579
102
{ACAD_REACTORS
330
25F1
102
}
330
25F1
100
AcDbSortentsTable
330
1F
  0
ACDBDETAILVIEWSTYLE
  5
6829D
102
{ACAD_XDICTIONARY
360
682D7
102
}
102
{ACAD_REACTORS
330
6829C
102
}
330
6829C
100
AcDbModelDocViewStyle
 70
     0
  3
Metric50
290
     0
100
AcDbDetailViewStyle
 70
     0
 71
     0
 90
        3
 71
     1
340
11
 62
   256
 40
5.0
340
0
 62
   256
 40
5.0
300

 40
0.0
280
     1
 71
     2
340
16
 90
       25
 62
   256
 71
     3
340
11
 62
   256
 40
5.0
 90
        0
 40
15.0
 90
        1
300
%<\AcVar ViewDetailId>% (%<\AcVar ViewScale \f "%sn">%)
 71
     4
340
16
 90
       25
 62
   256
340
16
 90
       25
 62
   256
280
     0
  0
LAYOUT
  5
682A3
102
{ACAD_REACTORS
330
1A
102
}
330
1A
100
AcDbPlotSettings
  1

  2
Microsoft Print to PDF
  4

  6

 40
0.0
 41
0.0
 42
0.0
 43
0.0
 44
0.0
 45
0.0
 46
0.0
 47
0.0
 48
0.0
 49
0.0
140
0.0
141
0.0
142
1.0
143
1.0
 70
   688
 72
     0
 73
     0
 74
     5
  7

 75
    16
147
1.0
 76
     0
 77
     2
 78
   300
148
0.0
149
0.0
100
AcDbLayout
  1
Layout1
 70
     1
 71
     1
 10
0.0
 20
0.0
 11
12.0
 21
9.0
 12
0.0
 22
0.0
 32
0.0
 14
0.0
 24
0.0
 34
0.0
 15
0.0
 25
0.0
 35
0.0
146
0.0
 13
0.0
 23
0.0
 33
0.0
 16
1.0
 26
0.0
 36
0.0
 17
0.0
 27
1.0
 37
0.0
 76
     0
330
682A2
  0
LAYOUT
  5
22
102
{ACAD_REACTORS
330
1A
102
}
330
1A
100
AcDbPlotSettings
  1

  2
hp LaserJet 3015 PCL 6
  4
A4
  6

 40
5.027083
 41
5.069412999999999
 42
5.027084
 43
5.027069
 44
209.973328
 45
296.968323
 46
1.57
 47
0.0
 48
368.9827211097164
 49
-15.36782280467582
140
645.9827211097164
141
174.6321771953241
142
1.0
143
0.9655879748755124
 70
 11956
 72
     1
 73
     1
 74
     4
  7
acad.ctb
 75
     0
147
1.035638415162454
 76
     1
 77
     2
 78
   300
148
-368.9827211097164
149
15.36782280467582
100
AcDbLayout
  1
Model
 70
     1
 71
     0
 10
0.0
 20
0.0
 11
12.0
 21
9.0
 12
0.0
 22
0.0
 32
0.0
 14
0.0
 24
0.0
 34
0.0
 15
0.0
 25
0.0
 35
0.0
146
0.0
 13
0.0
 23
0.0
 33
0.0
 16
1.0
 26
0.0
 36
0.0
 17
0.0
 27
1.0
 37
0.0
 76
     0
330
1F
331
56CA0
  0
MATERIAL
  5
56CA3
102
{ACAD_REACTORS
330
120D
102
}
330
120D
100
AcDbMaterial
  1
ByBlock
 73
     1
 78
     1
172
     1
176
     1
270
     1
274
     1
 94
       63
  0
MATERIAL
  5
56CA2
102
{ACAD_REACTORS
330
120D
102
}
330
120D
100
AcDbMaterial
  1
ByLayer
 73
     1
 78
     1
172
     1
176
     1
270
     1
274
     1
 94
       63
  0
MATERIAL
  5
56CA4
102
{ACAD_REACTORS
330
120D
102
}
330
120D
100
AcDbMaterial
  1
Global
 73
     1
 78
     1
172
     1
176
     1
270
     1
274
     1
 94
       63
  0
MLEADERSTYLE
  5
68299
102
{ACAD_REACTORS
330
68298
102
}
330
68298
100
AcDbMLeaderStyle
179
     2
170
     2
171
     1
172
     0
 90
        2
 40
0.0
 41
0.0
173
     1
 91
-1056964608
340
14
 92
       -2
290
     1
 42
2.0
291
     1
 43
0.36
  3
Standard
 44
4.0
300

342
11
174
     1
178
     6
175
     1
176
     0
 93
-1056964608
 45
4.0
292
     0
297
     0
 46
4.0
 94
-1056964608
 47
1.0
 49
1.0
140
1.0
293
     1
141
0.0
294
     1
177
     0
142
1.0
295
     0
296
     0
143
0.125
271
     0
272
     9
273
     9
298
     1
  0
MLINESTYLE
  5
18
102
{ACAD_REACTORS
330
17
102
}
330
17
100
AcDbMlineStyle
  2
STANDARD
 70
     0
  3

 62
   256
 51
90.0
 52
90.0
 71
     2
 49
0.5
 62
   256
  6
BYLAYER
 49
-0.5
 62
   256
  6
BYLAYER
  0
ACDBPLACEHOLDER
  5
F
102
{ACAD_REACTORS
330
E
102
}
330
E
  0
SCALE
  5
68287
102
{ACAD_REACTORS
330
68286
102
}
330
68286
100
AcDbScale
 70
     0
300
1:1
140
1.0
141
1.0
290
     1
  0
SCALE
  5
68288
102
{ACAD_REACTORS
330
68286
102
}
330
68286
100
AcDbScale
 70
     0
300
1:2
140
1.0
141
2.0
290
     0
  0
SCALE
  5
68289
102
{ACAD_REACTORS
330
68286
102
}
330
68286
100
AcDbScale
 70
     0
300
1:4
140
1.0
141
4.0
290
     0
  0
SCALE
  5
6828A
102
{ACAD_REACTORS
330
68286
102
}
330
68286
100
AcDbScale
 70
     0
300
1:5
140
1.0
141
5.0
290
     0
  0
SCALE
  5
6828B
102
{ACAD_REACTORS
330
68286
102
}
330
68286
100
AcDbScale
 70
     0
300
1:8
140
1.0
141
8.0
290
     0
  0
SCALE
  5
6828C
102
{ACAD_REACTORS
330
68286
102
}
330
68286
100
AcDbScale
 70
     0
300
1:10
140
1.0
141
10.0
290
     0
  0
SCALE
  5
6828D
102
{ACAD_REACTORS
330
68286
102
}
330
68286
100
AcDbScale
 70
     0
300
1:16
140
1.0
141
16.0
290
     0
  0
SCALE
  5
6828E
102
{ACAD_REACTORS
330
68286
102
}
330
68286
100
AcDbScale
 70
     0
300
1:20
140
1.0
141
20.0
290
     0
  0
SCALE
  5
6828F
102
{ACAD_REACTORS
330
68286
102
}
330
68286
100
AcDbScale
 70
     0
300
1:30
140
1.0
141
30.0
290
     0
  0
SCALE
  5
68290
102
{ACAD_REACTORS
330
68286
102
}
330
68286
100
AcDbScale
 70
     0
300
1:40
140
1.0
141
40.0
290
     0
  0
SCALE
  5
68291
102
{ACAD_REACTORS
330
68286
102
}
330
68286
100
AcDbScale
 70
     0
300
1:50
140
1.0
141
50.0
290
     0
  0
SCALE
  5
68292
102
{ACAD_REACTORS
330
68286
102
}
330
68286
100
AcDbScale
 70
     0
300
1:100
140
1.0
141
100.0
290
     0
  0
SCALE
  5
68293
102
{ACAD_REACTORS
330
68286
102
}
330
68286
100
AcDbScale
 70
     0
300
2:1
140
2.0
141
1.0
290
     0
  0
SCALE
  5
68294
102
{ACAD_REACTORS
330
68286
102
}
330
68286
100
AcDbScale
 70
     0
300
4:1
140
4.0
141
1.0
290
     0
  0
SCALE
  5
68295
102
{ACAD_REACTORS
330
68286
102
}
330
68286
100
AcDbScale
 70
     0
300
8:1
140
8.0
141
1.0
290
     0
  0
SCALE
  5
68296
102
{ACAD_REACTORS
330
68286
102
}
330
68286
100
AcDbScale
 70
     0
300
10:1
140
10.0
141
1.0
290
     0
  0
SCALE
  5
68297
102
{ACAD_REACTORS
330
68286
102
}
330
68286
100
AcDbScale
 70
     0
300
100:1
140
100.0
141
1.0
290
     0
  0
ACDBSECTIONVIEWSTYLE
  5
6829B
102
{ACAD_XDICTIONARY
360
682D5
102
}
102
{ACAD_REACTORS
330
6829A
102
}
330
6829A
100
AcDbModelDocViewStyle
 70
     0
  3
Metric50
290
     0
100
AcDbSectionViewStyle
 70
     0
 71
     0
 90
      102
 71
     1
340
11
 62
   256
 40
5.0
340
0
340
0
 62
   256
 40
5.0
300
I, O, Q, S, X, Z
 40
10.0
 90
        0
 40
2.5
 90
        0
 71
     2
340
16
 90
       25
 62
   256
340
16
 90
       50
 62
   256
 40
5.0
 40
2.5
 40
5.0
 71
     3
340
11
 62
   256
 40
5.0
 90
        0
 40
15.0
 90
        1
300
%<\AcVar ViewSectionStartId>%-%<\AcVar ViewSectionEndId>% (%<\AcVar ViewScale \f "%sn">%)
 71
     4
 62
   256
 62
   257
300
ANSI31
 40
1.0
 90
        0
290
     0
290
     0
 90
        6
 40
0.0
 40
1.570796326794896
 40
0.2617993877991494
 40
1.308996938995747
 40
-0.2617993877991494
 40
1.832595714594046
  0
TABLESTYLE
  5
56CB7
102
{ACAD_XDICTIONARY
360
682CA
102
}
102
{ACAD_REACTORS
330
56CB6
102
}
330
56CB6
100
AcDbTableStyle
280
     0
  3
Standard
 70
     0
 71
     0
 40
1.5
 41
1.5
280
     0
281
     0
  7
Standard
140
4.5
170
     2
 62
     0
 63
     7
283
     0
 90
      512
 91
        0
  1

274
    -2
284
     1
 64
     0
275
    -2
285
     1
 65
     0
276
    -2
286
     1
 66
     0
277
    -2
287
     1
 67
     0
278
    -2
288
     1
 68
     0
279
    -2
289
     1
 69
     0
  7
Standard
140
6.0
170
     5
 62
     0
 63
     7
283
     0
 90
      512
 91
        0
  1

274
    -2
284
     1
 64
     0
275
    -2
285
     1
 65
     0
276
    -2
286
     1
 66
     0
277
    -2
287
     1
 67
     0
278
    -2
288
     1
 68
     0
279
    -2
289
     1
 69
     0
  7
Standard
140
4.5
170
     5
 62
     0
 63
     7
283
     0
 90
      512
 91
        0
  1

274
    -2
284
     1
 64
     0
275
    -2
285
     1
 65
     0
276
    -2
286
     1
 66
     0
277
    -2
287
     1
 67
     0
278
    -2
288
     1
 68
     0
279
    -2
289
     1
 69
     0
  0
VISUALSTYLE
  5
56CAB
102
{ACAD_REACTORS
330
56CA5
102
}
330
56CA5
100
AcDbVisualStyle
  2
2dWireframe
 70
     4
177
     3
291
     0
 70
    58
 90
        0
176
     1
 90
        2
176
     1
 90
        0
176
     1
 90
        0
176
     1
 40
0.6
176
     1
 40
30.0
176
     1
 62
     7
176
     1
 90
        1
176
     1
 90
        4
176
     1
 62
     7
176
     1
 62
   257
176
     1
 90
        1
176
     1
 90
        1
176
     1
 40
1.0
176
     1
 90
        0
176
     1
 62
   257
176
     1
 40
1.0
176
     1
 90
        1
176
     1
 90
        6
176
     1
 90
        2
176
     1
 62
     7
176
     1
 90
        5
176
     1
 90
        0
176
     1
 90
        0
176
     1
290
     0
176
     1
 90
        1
176
     1
 40
0.0
176
     1
 90
        0
176
     1
290
     1
176
     1
290
     1
176
     1
290
     0
176
     1
290
     0
176
     1
290
     0
176
     1
290
     0
176
     1
290
     0
176
     1
290
     0
176
     1
290
     0
176
     1
 90
       50
176
     1
 40
0.0
176
     1
 40
1.0
176
     1
 90
        0
176
     1
 62
    18
420
        0
176
     1
 90
       50
176
     1
 90
        3
176
     1
 62
     5
420
      255
176
     1
290
     0
176
     1
 90
       50
176
     1
 90
       50
176
     1
 90
       50
176
     1
290
     0
176
     1
 90
       50
176
     1
 62
   256
176
     0
 40
1.0
176
     0
 90
        2
176
     1
  1
strokes_ogs.tif
176
     1
290
     0
176
     1
 40
1.0
176
     1
 40
1.0
176
     1
1001
ACAD
1000
AcDbSavedByObjectVersion
1070
     0
  0
VISUALSTYLE
  5
56CAD
102
{ACAD_REACTORS
330
56CA5
102
}
330
56CA5
100
AcDbVisualStyle
  2
3D Hidden
 70
     6
177
     3
291
     0
 70
    58
 90
        1
176
     1
 90
        2
176
     1
 90
        2
176
     1
 90
        0
176
     1
 40
0.6
176
     1
 40
30.0
176
     1
 62
     7
176
     1
 90
        2
176
     1
 90
        2
176
     1
 62
     7
176
     1
 62
   257
176
     1
 90
        2
176
     1
 90
        1
176
     1
 40
40.0
176
     1
 90
        0
176
     1
 62
   257
176
     1
 40
1.0
176
     1
 90
        1
176
     1
 90
        6
176
     1
 90
        2
176
     1
 62
     7
176
     1
 90
        3
176
     1
 90
        0
176
     1
 90
        0
176
     1
290
     0
176
     1
 90
        1
176
     1
 40
0.0
176
     1
 90
        0
176
     1
290
     0
176
     1
290
     1
176
     1
290
     1
176
     1
290
     0
176
     1
290
     0
176
     1
290
     0
176
     1
290
     0
176
     1
290
     0
176
     1
290
     0
176
     1
 90
       50
176
     1
 40
0.0
176
     1
 40
1.0
176
     1
 90
        0
176
     1
 62
    18
420
        0
176
     1
 90
       50
176
     1
 90
        3
176
     1
 62
     5
420
      255
176
     1
290
     0
176
     1
 90
       50
176
     1
 90
       50
176
     1
 90
       50
176
     1
290
     0
176
     1
 90
       50
176
     1
 62
   256
176
     0
 40
1.0
176
     0
 90
        2
176
     1
  1
strokes_ogs.tif
176
     1
290
     0
176
     1
 40
1.0
176
     1
 40
1.0
176
     1
1001
ACAD
1000
AcDbSavedByObjectVersion
1070
     0
  0
VISUALSTYLE
  5
56CAC
102
{ACAD_REACTORS
330
56CA5
102
}
330
56CA5
100
AcDbVisualStyle
  2
3dWireframe
 70
     5
177
     3
291
     0
 70
    58
 90
        0
176
     1
 90
        2
176
     1
 90
        0
176
     1
 90
        0
176
     1
 40
0.6
176
     1
 40
30.0
176
     1
 62
     7
176
     1
 90
        1
176
     1
 90
        4
176
     1
 62
     7
176
     1
 62
   257
176
     1
 90
        1
176
     1
 90
        1
176
     1
 40
1.0
176
     1
 90
        0
176
     1
 62
   257
176
     1
 40
1.0
176
     1
 90
        1
176
     1
 90
        6
176
     1
 90
        2
176
     1
 62
     7
176
     1
 90
        5
176
     1
 90
        0
176
     1
 90
        0
176
     1
290
     0
176
     1
 90
        1
176
     1
 40
0.0
176
     1
 90
        0
176
     1
290
     0
176
     1
290
     1
176
     1
290
     1
176
     1
290
     0
176
     1
290
     0
176
     1
290
     0
176
     1
290
     0
176
     1
290
     0
176
     1
290
     0
176
     1
 90
       50
176
     1
 40
0.0
176
     1
 40
1.0
176
     1
 90
        0
176
     1
 62
    18
420
        0
176
     1
 90
       50
176
     1
 90
        3
176
     1
 62
     5
420
      255
176
     1
290
     0
176
     1
 90
       50
176
     1
 90
       50
176
     1
 90
       50
176
     1
290
     0
176
     1
 90
       50
176
     1
 62
   256
176
     0
 40
1.0
176
     0
 90
        2
176
     1
  1
strokes_ogs.tif
176
     1
290
     0
176
     1
 40
1.0
176
     1
 40
1.0
176
     1
1001
ACAD
1000
AcDbSavedByObjectVersion
1070
     0
  0
VISUALSTYLE
  5
56CAA
102
{ACAD_REACTORS
330
56CA5
102
}
330
56CA5
100
AcDbVisualStyle
  2
Basic
 70
     7
177
     3
291
     1
 70
    58
 90
        1
176
     1
 90
        0
176
     1
 90
        1
176
     1
 90
        0
176
     1
 40
0.6
176
     1
 40
30.0
176
     1
 62
     7
176
     1
 90
        0
176
     1
 90
        4
176
     1
 62
     7
176
     1
 62
   257
176
     1
 90
        1
176
     1
 90
        1
176
     1
 40
1.0
176
     1
 90
        8
176
     1
 62
     7
176
     1
 40
1.0
176
     1
 90
        1
176
     1
 90
        6
176
     1
 90
        2
176
     1
 62
     7
176
     1
 90
        5
176
     1
 90
        0
176
     1
 90
        0
176
     1
290
     0
176
     1
 90
        1
176
     1
 40
0.0
176
     1
 90
        0
176
     1
290
     0
176
     1
290
     1
176
     1
290
     1
176
     1
290
     0
176
     1
290
     0
176
     1
290
     0
176
     1
290
     0
176
     1
290
     0
176
     1
290
     0
176
     1
 90
       50
176
     1
 40
0.0
176
     1
 40
1.0
176
     1
 90
        0
176
     1
 62
    18
420
        0
176
     1
 90
       50
176
     1
 90
        3
176
     1
 62
     5
420
      255
176
     1
290
     0
176
     1
 90
       50
176
     1
 90
       50
176
     1
 90
       50
176
     1
290
     0
176
     1
 90
       50
176
     1
 62
   256
176
     0
 40
1.0
176
     0
 90
        2
176
     1
  1
strokes_ogs.tif
176
     1
290
     0
176
     1
 40
1.0
176
     1
 40
1.0
176
     1
1001
ACAD
1000
AcDbSavedByObjectVersion
1070
     0
  0
VISUALSTYLE
  5
56CB1
102
{ACAD_REACTORS
330
56CA5
102
}
330
56CA5
100
AcDbVisualStyle
  2
Brighten
 70
    12
177
     3
291
     1
 70
    58
 90
        2
176
     1
 90
        2
176
     1
 90
        0
176
     1
 90
        0
176
     1
 40
0.6
176
     1
 40
30.0
176
     1
 62
     7
176
     1
 90
        1
176
     1
 90
        4
176
     1
 62
     7
176
     1
 62
   257
176
     1
 90
        1
176
     1
 90
        1
176
     1
 40
1.0
176
     1
 90
        8
176
     1
 62
     7
176
     1
 40
1.0
176
     1
 90
        1
176
     1
 90
        6
176
     1
 90
        2
176
     1
 62
     7
176
     1
 90
        5
176
     1
 90
        0
176
     1
 90
        0
176
     1
290
     0
176
     1
 90
        1
176
     1
 40
50.0
176
     1
 90
        0
176
     1
290
     0
176
     1
290
     1
176
     1
290
     1
176
     1
290
     0
176
     1
290
     0
176
     1
290
     0
176
     1
290
     0
176
     1
290
     0
176
     1
290
     0
176
     1
 90
       50
176
     1
 40
0.0
176
     1
 40
1.0
176
     1
 90
        0
176
     1
 62
    18
420
        0
176
     1
 90
       50
176
     1
 90
        3
176
     1
 62
     5
420
      255
176
     1
290
     0
176
     1
 90
       50
176
     1
 90
       50
176
     1
 90
       50
176
     1
290
     0
176
     1
 90
       50
176
     1
 62
   256
176
     0
 40
1.0
176
     0
 90
        2
176
     1
  1
strokes_ogs.tif
176
     1
290
     0
176
     1
 40
1.0
176
     1
 40
1.0
176
     1
1001
ACAD
1000
AcDbSavedByObjectVersion
1070
     0
  0
VISUALSTYLE
  5
56CB5
102
{ACAD_REACTORS
330
56CA5
102
}
330
56CA5
100
AcDbVisualStyle
  2
ColorChange
 70
    16
177
     3
291
     1
 70
    58
 90
        2
176
     1
 90
        2
176
     1
 90
        3
176
     1
 90
        0
176
     1
 40
0.6
176
     1
 40
30.0
176
     1
 62
     8
176
     1
 90
        1
176
     1
 90
        4
176
     1
 62
     7
176
     1
 62
   257
176
     1
 90
        1
176
     1
 90
        1
176
     1
 40
1.0
176
     1
 90
        8
176
     1
 62
     8
176
     1
 40
1.0
176
     1
 90
        1
176
     1
 90
        6
176
     1
 90
        2
176
     1
 62
     7
176
     1
 90
        5
176
     1
 90
        0
176
     1
 90
        0
176
     1
290
     0
176
     1
 90
        1
176
     1
 40
0.0
176
     1
 90
        0
176
     1
290
     0
176
     1
290
     1
176
     1
290
     1
176
     1
290
     0
176
     1
290
     0
176
     1
290
     0
176
     1
290
     0
176
     1
290
     0
176
     1
290
     0
176
     1
 90
       50
176
     1
 40
0.0
176
     1
 40
1.0
176
     1
 90
        0
176
     1
 62
    18
420
        0
176
     1
 90
       50
176
     1
 90
        3
176
     1
 62
     5
420
      255
176
     1
290
     0
176
     1
 90
       50
176
     1
 90
       50
176
     1
 90
       50
176
     1
290
     0
176
     1
 90
       50
176
     1
 62
   256
176
     0
 40
1.0
176
     0
 90
        2
176
     1
  1
strokes_ogs.tif
176
     1
290
     0
176
     1
 40
1.0
176
     1
 40
1.0
176
     1
1001
ACAD
1000
AcDbSavedByObjectVersion
1070
     0
  0
VISUALSTYLE
  5
56CAE
102
{ACAD_REACTORS
330
56CA5
102
}
330
56CA5
100
AcDbVisualStyle
  2
Conceptual
 70
     9
177
     3
291
     0
 70
    58
 90
        3
176
     1
 90
        2
176
     1
 90
        0
176
     1
 90
        0
176
     1
 40
0.6
176
     1
 40
30.0
176
     1
 62
     7
176
     1
 90
        2
176
     1
 90
        2
176
     1
 62
     7
176
     1
 62
   257
176
     1
 90
        1
176
     1
 90
        1
176
     1
 40
40.0
176
     1
 90
        8
176
     1
 62
     7
176
     1
 40
1.0
176
     1
 90
        1
176
     1
 90
        6
176
     1
 90
        2
176
     1
 62
     7
176
     1
 90
        3
176
     1
 90
        0
176
     1
 90
        0
176
     1
290
     0
176
     1
 90
        1
176
     1
 40
0.0
176
     1
 90
        0
176
     1
290
     0
176
     1
290
     1
176
     1
290
     1
176
     1
290
     0
176
     1
290
     0
176
     1
290
     0
176
     1
290
     0
176
     1
290
     0
176
     1
290
     0
176
     1
 90
       50
176
     1
 40
0.0
176
     1
 40
1.0
176
     1
 90
        0
176
     1
 62
    18
420
        0
176
     1
 90
       50
176
     1
 90
        3
176
     1
 62
     5
420
      255
176
     1
290
     0
176
     1
 90
       50
176
     1
 90
       50
176
     1
 90
       50
176
     1
290
     0
176
     1
 90
       50
176
     1
 62
   256
176
     0
 40
1.0
176
     0
 90
        2
176
     1
  1
strokes_ogs.tif
176
     1
290
     0
176
     1
 40
1.0
176
     1
 40
1.0
176
     1
1001
ACAD
1000
AcDbSavedByObjectVersion
1070
     0
  0
VISUALSTYLE
  5
56CB0
102
{ACAD_REACTORS
330
56CA5
102
}
330
56CA5
100
AcDbVisualStyle
  2
Dim
 70
    11
177
     3
291
     1
 70
    58
 90
        2
176
     1
 90
        2
176
     1
 90
        0
176
     1
 90
        0
176
     1
 40
0.6
176
     1
 40
30.0
176
     1
 62
     7
176
     1
 90
        1
176
     1
 90
        4
176
     1
 62
     7
176
     1
 62
   257
176
     1
 90
        1
176
     1
 90
        1
176
     1
 40
1.0
176
     1
 90
        8
176
     1
 62
     7
176
     1
 40
1.0
176
     1
 90
        1
176
     1
 90
        6
176
     1
 90
        2
176
     1
 62
     7
176
     1
 90
        5
176
     1
 90
        0
176
     1
 90
        0
176
     1
290
     0
176
     1
 90
        1
176
     1
 40
-50.0
176
     1
 90
        0
176
     1
290
     0
176
     1
290
     1
176
     1
290
     1
176
     1
290
     0
176
     1
290
     0
176
     1
290
     0
176
     1
290
     0
176
     1
290
     0
176
     1
290
     0
176
     1
 90
       50
176
     1
 40
0.0
176
     1
 40
1.0
176
     1
 90
        0
176
     1
 62
    18
420
        0
176
     1
 90
       50
176
     1
 90
        3
176
     1
 62
     5
420
      255
176
     1
290
     0
176
     1
 90
       50
176
     1
 90
       50
176
     1
 90
       50
176
     1
290
     0
176
     1
 90
       50
176
     1
 62
   256
176
     0
 40
1.0
176
     0
 90
        2
176
     1
  1
strokes_ogs.tif
176
     1
290
     0
176
     1
 40
1.0
176
     1
 40
1.0
176
     1
1001
ACAD
1000
AcDbSavedByObjectVersion
1070
     0
  0
VISUALSTYLE
  5
68284
102
{ACAD_REACTORS
330
56CA5
102
}
330
56CA5
100
AcDbVisualStyle
  2
EdgeColorOff
 70
    22
177
     3
291
     1
 70
    58
 90
        2
176
     0
 90
        2
176
     0
 90
        0
176
     0
 90
        0
176
     0
 40
0.6
176
     0
 40
30.0
176
     0
 62
     7
420
 16777215
176
     0
 90
        1
176
     0
 90
        4
176
     0
 62
     7
176
     0
 62
   257
176
     0
 90
        1
176
     0
 90
        1
176
     0
 40
1.0
176
     0
 90
        8
176
     2
 62
     7
176
     0
 40
1.0
176
     0
 90
        1
176
     0
 90
        6
176
     0
 90
        2
176
     0
 62
     7
176
     0
 90
        5
176
     0
 90
        0
176
     0
 90
        0
176
     0
290
     0
176
     0
 90
        1
176
     0
 40
0.0
176
     0
 90
        0
176
     0
290
     0
176
     0
290
     1
176
     0
290
     1
176
     0
290
     0
176
     0
290
     0
176
     0
290
     0
176
     0
290
     0
176
     0
290
     0
176
     0
290
     0
176
     0
 90
       50
176
     0
 40
0.0
176
     0
 40
1.0
176
     0
 90
        0
176
     0
 62
    18
420
        0
176
     0
 90
       50
176
     0
 90
        3
176
     0
 62
     5
420
      255
176
     0
290
     0
176
     0
 90
       50
176
     0
 90
       50
176
     0
 90
       50
176
     0
290
     0
176
     0
 90
       50
176
     0
 62
   256
176
     0
 40
1.0
176
     0
 90
        2
176
     0
  1
strokes_ogs.tif
176
     0
290
     0
176
     0
 40
1.0
176
     0
 40
1.0
176
     0
1001
ACAD
1000
AcDbSavedByObjectVersion
1070
     0
  0
VISUALSTYLE
  5
56CB4
102
{ACAD_REACTORS
330
56CA5
102
}
330
56CA5
100
AcDbVisualStyle
  2
Facepattern
 70
    15
177
     3
291
     1
 70
    58
 90
        2
176
     1
 90
        2
176
     1
 90
        0
176
     1
 90
        0
176
     1
 40
0.6
176
     1
 40
30.0
176
     1
 62
     7
176
     1
 90
        1
176
     1
 90
        4
176
     1
 62
     7
176
     1
 62
   257
176
     1
 90
        1
176
     1
 90
        1
176
     1
 40
1.0
176
     1
 90
        8
176
     1
 62
     7
176
     1
 40
1.0
176
     1
 90
        1
176
     1
 90
        6
176
     1
 90
        2
176
     1
 62
     7
176
     1
 90
        5
176
     1
 90
        0
176
     1
 90
        0
176
     1
290
     0
176
     1
 90
        1
176
     1
 40
0.0
176
     1
 90
        0
176
     1
290
     0
176
     1
290
     1
176
     1
290
     1
176
     1
290
     0
176
     1
290
     0
176
     1
290
     0
176
     1
290
     0
176
     1
290
     0
176
     1
290
     0
176
     1
 90
       50
176
     1
 40
0.0
176
     1
 40
1.0
176
     1
 90
        0
176
     1
 62
    18
420
        0
176
     1
 90
       50
176
     1
 90
        3
176
     1
 62
     5
420
      255
176
     1
290
     0
176
     1
 90
       50
176
     1
 90
       50
176
     1
 90
       50
176
     1
290
     0
176
     1
 90
       50
176
     1
 62
   256
176
     0
 40
1.0
176
     0
 90
        2
176
     1
  1
strokes_ogs.tif
176
     1
290
     0
176
     1
 40
1.0
176
     1
 40
1.0
176
     1
1001
ACAD
1000
AcDbSavedByObjectVersion
1070
     0
  0
VISUALSTYLE
  5
56CA6
102
{ACAD_REACTORS
330
56CA5
102
}
330
56CA5
100
AcDbVisualStyle
  2
Flat
 70
     0
177
     3
291
     1
 70
    58
 90
        2
176
     1
 90
        1
176
     1
 90
        1
176
     1
 90
        2
176
     1
 40
0.6
176
     1
 40
30.0
176
     1
 62
     7
176
     1
 90
        0
176
     1
 90
        4
176
     1
 62
     7
176
     1
 62
   257
176
     1
 90
        1
176
     1
 90
        1
176
     1
 40
1.0
176
     1
 90
        8
176
     1
 62
     7
176
     1
 40
1.0
176
     1
 90
        1
176
     1
 90
        6
176
     1
 90
        2
176
     1
 62
     7
176
     1
 90
        5
176
     1
 90
        0
176
     1
 90
        0
176
     1
290
     0
176
     1
 90
       13
176
     1
 40
0.0
176
     1
 90
        0
176
     1
290
     0
176
     1
290
     1
176
     1
290
     1
176
     1
290
     0
176
     1
290
     0
176
     1
290
     0
176
     1
290
     0
176
     1
290
     0
176
     1
290
     0
176
     1
 90
       50
176
     1
 40
0.0
176
     1
 40
1.0
176
     1
 90
        0
176
     1
 62
    18
420
        0
176
     1
 90
       50
176
     1
 90
        3
176
     1
 62
     5
420
      255
176
     1
290
     0
176
     1
 90
       50
176
     1
 90
       50
176
     1
 90
       50
176
     1
290
     0
176
     1
 90
       50
176
     1
 62
   256
176
     0
 40
1.0
176
     0
 90
        2
176
     1
  1
strokes_ogs.tif
176
     1
290
     0
176
     1
 40
1.0
176
     1
 40
1.0
176
     1
1001
ACAD
1000
AcDbSavedByObjectVersion
1070
     0
  0
VISUALSTYLE
  5
56CA7
102
{ACAD_REACTORS
330
56CA5
102
}
330
56CA5
100
AcDbVisualStyle
  2
FlatWithEdges
 70
     1
177
     3
291
     1
 70
    58
 90
        2
176
     1
 90
        1
176
     1
 90
        1
176
     1
 90
        2
176
     1
 40
0.6
176
     1
 40
30.0
176
     1
 62
     7
176
     1
 90
        1
176
     1
 90
        4
176
     1
 62
     7
176
     1
 62
   257
176
     1
 90
        1
176
     1
 90
        1
176
     1
 40
1.0
176
     1
 90
        0
176
     1
 62
   257
176
     1
 40
1.0
176
     1
 90
        1
176
     1
 90
        6
176
     1
 90
        2
176
     1
 62
     7
176
     1
 90
        5
176
     1
 90
        0
176
     1
 90
        0
176
     1
290
     0
176
     1
 90
       13
176
     1
 40
0.0
176
     1
 90
        0
176
     1
290
     0
176
     1
290
     1
176
     1
290
     1
176
     1
290
     0
176
     1
290
     0
176
     1
290
     0
176
     1
290
     0
176
     1
290
     0
176
     1
290
     0
176
     1
 90
       50
176
     1
 40
0.0
176
     1
 40
1.0
176
     1
 90
        0
176
     1
 62
    18
420
        0
176
     1
 90
       50
176
     1
 90
        3
176
     1
 62
     5
420
      255
176
     1
290
     0
176
     1
 90
       50
176
     1
 90
       50
176
     1
 90
       50
176
     1
290
     0
176
     1
 90
       50
176
     1
 62
   256
176
     0
 40
1.0
176
     0
 90
        2
176
     1
  1
strokes_ogs.tif
176
     1
290
     0
176
     1
 40
1.0
176
     1
 40
1.0
176
     1
1001
ACAD
1000
AcDbSavedByObjectVersion
1070
     0
  0
VISUALSTYLE
  5
56CA8
102
{ACAD_REACTORS
330
56CA5
102
}
330
56CA5
100
AcDbVisualStyle
  2
Gouraud
 70
     2
177
     3
291
     1
 70
    58
 90
        2
176
     1
 90
        2
176
     1
 90
        1
176
     1
 90
        2
176
     1
 40
0.6
176
     1
 40
30.0
176
     1
 62
     7
176
     1
 90
        0
176
     1
 90
        4
176
     1
 62
     7
176
     1
 62
   257
176
     1
 90
        1
176
     1
 90
        1
176
     1
 40
1.0
176
     1
 90
        0
176
     1
 62
     7
176
     1
 40
1.0
176
     1
 90
        1
176
     1
 90
        6
176
     1
 90
        2
176
     1
 62
     7
176
     1
 90
        5
176
     1
 90
        0
176
     1
 90
        0
176
     1
290
     0
176
     1
 90
       13
176
     1
 40
0.0
176
     1
 90
        0
176
     1
290
     0
176
     1
290
     1
176
     1
290
     1
176
     1
290
     0
176
     1
290
     0
176
     1
290
     0
176
     1
290
     0
176
     1
290
     0
176
     1
290
     0
176
     1
 90
       50
176
     1
 40
0.0
176
     1
 40
1.0
176
     1
 90
        0
176
     1
 62
    18
420
        0
176
     1
 90
       50
176
     1
 90
        3
176
     1
 62
     5
420
      255
176
     1
290
     0
176
     1
 90
       50
176
     1
 90
       50
176
     1
 90
       50
176
     1
290
     0
176
     1
 90
       50
176
     1
 62
   256
176
     0
 40
1.0
176
     0
 90
        2
176
     1
  1
strokes_ogs.tif
176
     1
290
     0
176
     1
 40
1.0
176
     1
 40
1.0
176
     1
1001
ACAD
1000
AcDbSavedByObjectVersion
1070
     0
  0
VISUALSTYLE
  5
56CA9
102
{ACAD_REACTORS
330
56CA5
102
}
330
56CA5
100
AcDbVisualStyle
  2
GouraudWithEdges
 70
     3
177
     3
291
     1
 70
    58
 90
        2
176
     1
 90
        2
176
     1
 90
        1
176
     1
 90
        2
176
     1
 40
0.6
176
     1
 40
30.0
176
     1
 62
     7
176
     1
 90
        1
176
     1
 90
        4
176
     1
 62
     7
176
     1
 62
   257
176
     1
 90
        1
176
     1
 90
        1
176
     1
 40
1.0
176
     1
 90
        0
176
     1
 62
   257
176
     1
 40
1.0
176
     1
 90
        1
176
     1
 90
        6
176
     1
 90
        2
176
     1
 62
     7
176
     1
 90
        5
176
     1
 90
        0
176
     1
 90
        0
176
     1
290
     0
176
     1
 90
       13
176
     1
 40
0.0
176
     1
 90
        0
176
     1
290
     0
176
     1
290
     1
176
     1
290
     1
176
     1
290
     0
176
     1
290
     0
176
     1
290
     0
176
     1
290
     0
176
     1
290
     0
176
     1
290
     0
176
     1
 90
       50
176
     1
 40
0.0
176
     1
 40
1.0
176
     1
 90
        0
176
     1
 62
    18
420
        0
176
     1
 90
       50
176
     1
 90
        3
176
     1
 62
     5
420
      255
176
     1
290
     0
176
     1
 90
       50
176
     1
 90
       50
176
     1
 90
       50
176
     1
290
     0
176
     1
 90
       50
176
     1
 62
   256
176
     0
 40
1.0
176
     0
 90
        2
176
     1
  1
strokes_ogs.tif
176
     1
290
     0
176
     1
 40
1.0
176
     1
 40
1.0
176
     1
1001
ACAD
1000
AcDbSavedByObjectVersion
1070
     0
  0
VISUALSTYLE
  5
6827C
102
{ACAD_REACTORS
330
56CA5
102
}
330
56CA5
100
AcDbVisualStyle
  2
Hidden
 70
     6
177
     3
291
     0
 70
    58
 90
        1
176
     1
 90
        2
176
     1
 90
        2
176
     1
 90
        0
176
     1
 40
0.6
176
     1
 40
30.0
176
     1
 62
     7
420
 16777215
176
     1
 90
        2
176
     1
 90
        2
176
     1
 62
     7
176
     1
 62
   257
176
     1
 90
        2
176
     1
 90
        1
176
     1
 40
40.0
176
     1
 90
        0
176
     1
 62
   257
176
     1
 40
1.0
176
     1
 90
        1
176
     1
 90
        6
176
     1
 90
        2
176
     1
 62
     7
176
     1
 90
        3
176
     1
 90
        0
176
     1
 90
        0
176
     1
290
     0
176
     1
 90
        1
176
     1
 40
0.0
176
     1
 90
        0
176
     1
290
     0
176
     1
290
     1
176
     1
290
     1
176
     1
290
     0
176
     1
290
     0
176
     1
290
     0
176
     1
290
     0
176
     1
290
     0
176
     1
290
     0
176
     1
 90
       50
176
     1
 40
0.0
176
     1
 40
1.0
176
     1
 90
        0
176
     1
 62
    18
420
        0
176
     1
 90
       50
176
     1
 90
        3
176
     1
 62
     5
420
      255
176
     1
290
     0
176
     1
 90
       50
176
     1
 90
       50
176
     1
 90
       50
176
     1
290
     0
176
     1
 90
       50
176
     1
 62
   256
176
     0
 40
1.0
176
     0
 90
        2
176
     1
  1
strokes_ogs.tif
176
     1
290
     0
176
     1
 40
1.0
176
     1
 40
1.0
176
     1
1001
ACAD
1000
AcDbSavedByObjectVersion
1070
     0
  0
VISUALSTYLE
  5
68282
102
{ACAD_REACTORS
330
56CA5
102
}
330
56CA5
100
AcDbVisualStyle
  2
JitterOff
 70
    20
177
     3
291
     1
 70
    58
 90
        2
176
     0
 90
        2
176
     0
 90
        0
176
     0
 90
        0
176
     0
 40
0.6
176
     0
 40
30.0
176
     0
 62
     7
420
 16777215
176
     0
 90
        1
176
     0
 90
        4
176
     0
 62
     7
176
     0
 62
   257
176
     0
 90
        1
176
     0
 90
        1
176
     0
 40
1.0
176
     0
 90
       10
176
     2
 62
     7
176
     0
 40
1.0
176
     0
 90
        1
176
     0
 90
        6
176
     0
 90
        2
176
     0
 62
     7
176
     0
 90
        5
176
     0
 90
        0
176
     0
 90
        0
176
     0
290
     0
176
     0
 90
        1
176
     0
 40
0.0
176
     0
 90
        0
176
     0
290
     0
176
     0
290
     1
176
     0
290
     1
176
     0
290
     0
176
     0
290
     0
176
     0
290
     0
176
     0
290
     0
176
     0
290
     0
176
     0
290
     0
176
     0
 90
       50
176
     0
 40
0.0
176
     0
 40
1.0
176
     0
 90
        0
176
     0
 62
    18
420
        0
176
     0
 90
       50
176
     0
 90
        3
176
     0
 62
     5
420
      255
176
     0
290
     0
176
     0
 90
       50
176
     0
 90
       50
176
     0
 90
       50
176
     0
290
     0
176
     0
 90
       50
176
     0
 62
   256
176
     0
 40
1.0
176
     0
 90
        2
176
     0
  1
strokes_ogs.tif
176
     0
290
     0
176
     0
 40
1.0
176
     0
 40
1.0
176
     0
1001
ACAD
1000
AcDbSavedByObjectVersion
1070
     0
  0
VISUALSTYLE
  5
56CB3
102
{ACAD_REACTORS
330
56CA5
102
}
330
56CA5
100
AcDbVisualStyle
  2
Linepattern
 70
    14
177
     3
291
     1
 70
    58
 90
        2
176
     1
 90
        2
176
     1
 90
        0
176
     1
 90
        0
176
     1
 40
0.6
176
     1
 40
30.0
176
     1
 62
     7
176
     1
 90
        1
176
     1
 90
        4
176
     1
 62
     7
176
     1
 62
   257
176
     1
 90
        7
176
     1
 90
        7
176
     1
 40
1.0
176
     1
 90
        8
176
     1
 62
     7
176
     1
 40
1.0
176
     1
 90
        1
176
     1
 90
        6
176
     1
 90
        2
176
     1
 62
     7
176
     1
 90
        5
176
     1
 90
        0
176
     1
 90
        0
176
     1
290
     0
176
     1
 90
        1
176
     1
 40
0.0
176
     1
 90
        0
176
     1
290
     0
176
     1
290
     1
176
     1
290
     1
176
     1
290
     0
176
     1
290
     0
176
     1
290
     0
176
     1
290
     0
176
     1
290
     0
176
     1
290
     0
176
     1
 90
       50
176
     1
 40
0.0
176
     1
 40
1.0
176
     1
 90
        0
176
     1
 62
    18
420
        0
176
     1
 90
       50
176
     1
 90
        3
176
     1
 62
     5
420
      255
176
     1
290
     0
176
     1
 90
       50
176
     1
 90
       50
176
     1
 90
       50
176
     1
290
     0
176
     1
 90
       50
176
     1
 62
   256
176
     0
 40
1.0
176
     0
 90
        2
176
     1
  1
strokes_ogs.tif
176
     1
290
     0
176
     1
 40
1.0
176
     1
 40
1.0
176
     1
1001
ACAD
1000
AcDbSavedByObjectVersion
1070
     0
  0
VISUALSTYLE
  5
68283
102
{ACAD_REACTORS
330
56CA5
102
}
330
56CA5
100
AcDbVisualStyle
  2
OverhangOff
 70
    21
177
     3
291
     1
 70
    58
 90
        2
176
     0
 90
        2
176
     0
 90
        0
176
     0
 90
        0
176
     0
 40
0.6
176
     0
 40
30.0
176
     0
 62
     7
420
 16777215
176
     0
 90
        1
176
     0
 90
        4
176
     0
 62
     7
176
     0
 62
   257
176
     0
 90
        1
176
     0
 90
        1
176
     0
 40
1.0
176
     0
 90
        9
176
     2
 62
     7
176
     0
 40
1.0
176
     0
 90
        1
176
     0
 90
        6
176
     0
 90
        2
176
     0
 62
     7
176
     0
 90
        5
176
     0
 90
        0
176
     0
 90
        0
176
     0
290
     0
176
     0
 90
        1
176
     0
 40
0.0
176
     0
 90
        0
176
     0
290
     0
176
     0
290
     1
176
     0
290
     1
176
     0
290
     0
176
     0
290
     0
176
     0
290
     0
176
     0
290
     0
176
     0
290
     0
176
     0
290
     0
176
     0
 90
       50
176
     0
 40
0.0
176
     0
 40
1.0
176
     0
 90
        0
176
     0
 62
    18
420
        0
176
     0
 90
       50
176
     0
 90
        3
176
     0
 62
     5
420
      255
176
     0
290
     0
176
     0
 90
       50
176
     0
 90
       50
176
     0
 90
       50
176
     0
290
     0
176
     0
 90
       50
176
     0
 62
   256
176
     0
 40
1.0
176
     0
 90
        2
176
     0
  1
strokes_ogs.tif
176
     0
290
     0
176
     0
 40
1.0
176
     0
 40
1.0
176
     0
1001
ACAD
1000
AcDbSavedByObjectVersion
1070
     0
  0
VISUALSTYLE
  5
56CAF
102
{ACAD_REACTORS
330
56CA5
102
}
330
56CA5
100
AcDbVisualStyle
  2
Realistic
 70
     8
177
     3
291
     0
 70
    58
 90
        2
176
     1
 90
        2
176
     1
 90
        0
176
     1
 90
        0
176
     1
 40
0.6
176
     1
 40
30.0
176
     1
 62
     7
176
     1
 90
        1
176
     1
 90
        0
176
     1
 62
     7
176
     1
 62
   257
176
     1
 90
        1
176
     1
 90
        1
176
     1
 40
1.0
176
     1
 90
        8
176
     1
 62
     8
176
     1
 40
1.0
176
     1
 90
        1
176
     1
 90
        6
176
     1
 90
        2
176
     1
 62
     7
176
     1
 90
        5
176
     1
 90
        0
176
     1
 90
        0
176
     1
290
     0
176
     1
 90
       13
176
     1
 40
0.0
176
     1
 90
        0
176
     1
290
     0
176
     1
290
     1
176
     1
290
     1
176
     1
290
     0
176
     1
290
     0
176
     1
290
     0
176
     1
290
     0
176
     1
290
     0
176
     1
290
     0
176
     1
 90
       50
176
     1
 40
0.0
176
     1
 40
1.0
176
     1
 90
        0
176
     1
 62
    18
420
        0
176
     1
 90
       50
176
     1
 90
        3
176
     1
 62
     5
420
      255
176
     1
290
     0
176
     1
 90
       50
176
     1
 90
       50
176
     1
 90
       50
176
     1
290
     0
176
     1
 90
       50
176
     1
 62
   256
176
     0
 40
1.0
176
     0
 90
        2
176
     1
  1
strokes_ogs.tif
176
     1
290
     0
176
     1
 40
1.0
176
     1
 40
1.0
176
     1
1001
ACAD
1000
AcDbSavedByObjectVersion
1070
     0
  0
VISUALSTYLE
  5
68281
102
{ACAD_REACTORS
330
56CA5
102
}
330
56CA5
100
AcDbVisualStyle
  2
Shaded
 70
    27
177
     3
291
     0
 70
    58
 90
        2
176
     1
 90
        2
176
     1
 90
        1
176
     1
 90
        2
176
     1
 40
0.6
176
     1
 40
30.0
176
     1
 62
     7
420
 16777215
176
     1
 90
        0
176
     1
 90
        4
176
     1
 62
     7
176
     1
 62
   257
176
     1
 90
        1
176
     1
 90
        1
176
     1
 40
1.0
176
     1
 90
        8
176
     1
 62
   257
176
     1
 40
1.0
176
     1
 90
        1
176
     1
 90
        6
176
     1
 90
        2
176
     1
 62
     8
420
  7895160
176
     1
 90
        3
176
     1
 90
        0
176
     1
 90
        0
176
     1
290
     0
176
     1
 90
        5
176
     1
 40
0.0
176
     1
 90
        0
176
     1
290
     0
176
     1
290
     1
176
     1
290
     1
176
     1
290
     0
176
     1
290
     0
176
     1
290
     0
176
     1
290
     0
176
     1
290
     0
176
     1
290
     0
176
     1
 90
       50
176
     1
 40
0.0
176
     1
 40
1.0
176
     1
 90
        0
176
     1
 62
    18
420
        0
176
     1
 90
       50
176
     1
 90
        3
176
     1
 62
     5
420
      255
176
     1
290
     0
176
     1
 90
       50
176
     1
 90
       50
176
     1
 90
       50
176
     1
290
     0
176
     1
 90
       50
176
     1
 62
   256
176
     0
 40
1.0
176
     0
 90
        2
176
     1
  1
strokes_ogs.tif
176
     1
290
     0
176
     1
 40
1.0
176
     1
 40
1.0
176
     1
1001
ACAD
1000
AcDbSavedByObjectVersion
1070
     0
  0
VISUALSTYLE
  5
68280
102
{ACAD_REACTORS
330
56CA5
102
}
330
56CA5
100
AcDbVisualStyle
  2
Shaded with edges
 70
    26
177
     3
291
     0
 70
    58
 90
        2
176
     1
 90
        2
176
     1
 90
        1
176
     1
 90
        2
176
     1
 40
0.6
176
     1
 40
30.0
176
     1
 62
     7
420
 16777215
176
     1
 90
        1
176
     1
 90
        2
176
     1
 62
     7
176
     1
 62
   257
176
     1
 90
        2
176
     1
 90
        1
176
     1
 40
1.0
176
     1
 90
        8
176
     1
 62
   257
176
     1
 40
1.0
176
     1
 90
        1
176
     1
 90
        6
176
     1
 90
        2
176
     1
 62
     7
176
     1
 90
        3
176
     1
 90
        0
176
     1
 90
        0
176
     1
290
     0
176
     1
 90
        5
176
     1
 40
0.0
176
     1
 90
        0
176
     1
290
     0
176
     1
290
     1
176
     1
290
     1
176
     1
290
     0
176
     1
290
     0
176
     1
290
     0
176
     1
290
     0
176
     1
290
     0
176
     1
290
     0
176
     1
 90
       50
176
     1
 40
0.0
176
     1
 40
1.0
176
     1
 90
        0
176
     1
 62
    18
420
        0
176
     1
 90
       50
176
     1
 90
        3
176
     1
 62
     5
420
      255
176
     1
290
     0
176
     1
 90
       50
176
     1
 90
       50
176
     1
 90
       50
176
     1
290
     0
176
     1
 90
       50
176
     1
 62
   256
176
     0
 40
1.0
176
     0
 90
        2
176
     1
  1
strokes_ogs.tif
176
     1
290
     0
176
     1
 40
1.0
176
     1
 40
1.0
176
     1
1001
ACAD
1000
AcDbSavedByObjectVersion
1070
     0
  0
VISUALSTYLE
  5
6827D
102
{ACAD_REACTORS
330
56CA5
102
}
330
56CA5
100
AcDbVisualStyle
  2
Shades of Gray
 70
    23
177
     3
291
     0
 70
    58
 90
        2
176
     1
 90
        2
176
     1
 90
        3
176
     1
 90
        0
176
     1
 40
0.6
176
     1
 40
30.0
176
     1
 62
     7
420
 16777215
176
     1
 90
        2
176
     1
 90
        2
176
     1
 62
     7
176
     1
 62
     7
176
     1
 90
        1
176
     1
 90
        1
176
     1
 40
40.0
176
     1
 90
        8
176
     1
 62
     7
176
     1
 40
1.0
176
     1
 90
        1
176
     1
 90
        6
176
     1
 90
        2
176
     1
 62
     7
176
     1
 90
        3
176
     1
 90
        0
176
     1
 90
        0
176
     1
290
     0
176
     1
 90
        1
176
     1
 40
0.0
176
     1
 90
        0
176
     1
290
     0
176
     1
290
     1
176
     1
290
     1
176
     1
290
     0
176
     1
290
     0
176
     1
290
     0
176
     1
290
     0
176
     1
290
     0
176
     1
290
     0
176
     1
 90
       50
176
     1
 40
0.0
176
     1
 40
1.0
176
     1
 90
        0
176
     1
 62
    18
420
        0
176
     1
 90
       50
176
     1
 90
        3
176
     1
 62
     5
420
      255
176
     1
290
     0
176
     1
 90
       50
176
     1
 90
       50
176
     1
 90
       50
176
     1
290
     0
176
     1
 90
       50
176
     1
 62
   256
176
     0
 40
1.0
176
     0
 90
        2
176
     1
  1
strokes_ogs.tif
176
     1
290
     0
176
     1
 40
1.0
176
     1
 40
1.0
176
     1
1001
ACAD
1000
AcDbSavedByObjectVersion
1070
     0
  0
VISUALSTYLE
  5
6827E
102
{ACAD_REACTORS
330
56CA5
102
}
330
56CA5
100
AcDbVisualStyle
  2
Sketchy
 70
    24
177
     3
291
     0
 70
    58
 90
        1
176
     1
 90
        2
176
     1
 90
        2
176
     1
 90
        0
176
     1
 40
0.6
176
     1
 40
30.0
176
     1
 62
     7
420
 16777215
176
     1
 90
        2
176
     1
 90
        2
176
     1
 62
     7
176
     1
 62
     7
176
     1
 90
        1
176
     1
 90
        1
176
     1
 40
40.0
176
     1
 90
       11
176
     1
 62
     7
176
     1
 40
1.0
176
     1
 90
        1
176
     1
 90
        6
176
     1
 90
        2
176
     1
 62
     7
176
     1
 90
        6
176
     1
 90
        0
176
     1
 90
        0
176
     1
290
     0
176
     1
 90
        1
176
     1
 40
0.0
176
     1
 90
        0
176
     1
290
     0
176
     1
290
     1
176
     1
290
     1
176
     1
290
     0
176
     1
290
     0
176
     1
290
     0
176
     1
290
     0
176
     1
290
     0
176
     1
290
     0
176
     1
 90
       50
176
     1
 40
0.0
176
     1
 40
1.0
176
     1
 90
        0
176
     1
 62
    18
420
        0
176
     1
 90
       50
176
     1
 90
        3
176
     1
 62
     5
420
      255
176
     1
290
     0
176
     1
 90
       50
176
     1
 90
       50
176
     1
 90
       50
176
     1
290
     0
176
     1
 90
       50
176
     1
 62
   256
176
     0
 40
1.0
176
     0
 90
        2
176
     1
  1
strokes_ogs.tif
176
     1
290
     0
176
     1
 40
1.0
176
     1
 40
1.0
176
     1
1001
ACAD
1000
AcDbSavedByObjectVersion
1070
     0
  0
VISUALSTYLE
  5
56CB2
102
{ACAD_REACTORS
330
56CA5
102
}
330
56CA5
100
AcDbVisualStyle
  2
Thicken
 70
    13
177
     3
291
     1
 70
    58
 90
        2
176
     1
 90
        2
176
     1
 90
        0
176
     1
 90
        0
176
     1
 40
0.6
176
     1
 40
30.0
176
     1
 62
     7
176
     1
 90
        1
176
     1
 90
        4
176
     1
 62
     7
176
     1
 62
   257
176
     1
 90
        1
176
     1
 90
        1
176
     1
 40
1.0
176
     1
 90
       12
176
     1
 62
     7
176
     1
 40
1.0
176
     1
 90
        1
176
     1
 90
        6
176
     1
 90
        2
176
     1
 62
     7
176
     1
 90
        5
176
     1
 90
        0
176
     1
 90
        0
176
     1
290
     0
176
     1
 90
        1
176
     1
 40
0.0
176
     1
 90
        0
176
     1
290
     0
176
     1
290
     1
176
     1
290
     1
176
     1
290
     0
176
     1
290
     0
176
     1
290
     0
176
     1
290
     0
176
     1
290
     0
176
     1
290
     0
176
     1
 90
       50
176
     1
 40
0.0
176
     1
 40
1.0
176
     1
 90
        0
176
     1
 62
    18
420
        0
176
     1
 90
       50
176
     1
 90
        3
176
     1
 62
     5
420
      255
176
     1
290
     0
176
     1
 90
       50
176
     1
 90
       50
176
     1
 90
       50
176
     1
290
     0
176
     1
 90
       50
176
     1
 62
   256
176
     0
 40
1.0
176
     0
 90
        2
176
     1
  1
strokes_ogs.tif
176
     1
290
     0
176
     1
 40
1.0
176
     1
 40
1.0
176
     1
1001
ACAD
1000
AcDbSavedByObjectVersion
1070
     0
  0
VISUALSTYLE
  5
6827B
102
{ACAD_REACTORS
330
56CA5
102
}
330
56CA5
100
AcDbVisualStyle
  2
Wireframe
 70
     5
177
     3
291
     0
 70
    58
 90
        0
176
     1
 90
        2
176
     1
 90
        0
176
     1
 90
        0
176
     1
 40
0.6
176
     1
 40
30.0
176
     1
 62
     7
420
 16777215
176
     1
 90
        1
176
     1
 90
        4
176
     1
 62
     7
176
     1
 62
   257
176
     1
 90
        1
176
     1
 90
        1
176
     1
 40
1.0
176
     1
 90
        0
176
     1
 62
   257
176
     1
 40
1.0
176
     1
 90
        1
176
     1
 90
        6
176
     1
 90
        2
176
     1
 62
     7
176
     1
 90
        3
176
     1
 90
        0
176
     1
 90
        0
176
     1
290
     0
176
     1
 90
        1
176
     1
 40
0.0
176
     1
 90
        0
176
     1
290
     0
176
     1
290
     1
176
     1
290
     1
176
     1
290
     0
176
     1
290
     0
176
     1
290
     0
176
     1
290
     0
176
     1
290
     0
176
     1
290
     0
176
     1
 90
       50
176
     1
 40
0.0
176
     1
 40
1.0
176
     1
 90
        0
176
     1
 62
    18
420
        0
176
     1
 90
       50
176
     1
 90
        3
176
     1
 62
     5
420
      255
176
     1
290
     0
176
     1
 90
       50
176
     1
 90
       50
176
     1
 90
       50
176
     1
290
     0
176
     1
 90
       50
176
     1
 62
   256
176
     0
 40
1.0
176
     0
 90
        2
176
     1
  1
strokes_ogs.tif
176
     1
290
     0
176
     1
 40
1.0
176
     1
 40
1.0
176
     1
1001
ACAD
1000
AcDbSavedByObjectVersion
1070
     0
  0
VISUALSTYLE
  5
6827F
102
{ACAD_REACTORS
330
56CA5
102
}
330
56CA5
100
AcDbVisualStyle
  2
X-Ray
 70
    25
177
     3
291
     0
 70
    58
 90
        2
176
     1
 90
        2
176
     1
 90
        1
176
     1
 90
        1
176
     1
 40
0.5
176
     1
 40
30.0
176
     1
 62
     7
420
 16777215
176
     1
 90
        1
176
     1
 90
        0
176
     1
 62
     7
176
     1
 62
   257
176
     1
 90
        1
176
     1
 90
        1
176
     1
 40
1.0
176
     1
 90
        8
176
     1
 62
     7
176
     1
 40
1.0
176
     1
 90
        1
176
     1
 90
        6
176
     1
 90
        2
176
     1
 62
     7
176
     1
 90
        3
176
     1
 90
        0
176
     1
 90
        0
176
     1
290
     0
176
     1
 90
       13
176
     1
 40
0.0
176
     1
 90
        0
176
     1
290
     0
176
     1
290
     1
176
     1
290
     1
176
     1
290
     0
176
     1
290
     0
176
     1
290
     0
176
     1
290
     0
176
     1
290
     0
176
     1
290
     0
176
     1
 90
       50
176
     1
 40
0.0
176
     1
 40
1.0
176
     1
 90
        0
176
     1
 62
    18
420
        0
176
     1
 90
       50
176
     1
 90
        3
176
     1
 62
     5
420
      255
176
     1
290
     0
176
     1
 90
       50
176
     1
 90
       50
176
     1
 90
       50
176
     1
290
     0
176
     1
 90
       50
176
     1
 62
   256
176
     0
 40
1.0
176
     0
 90
        2
176
     1
  1
strokes_ogs.tif
176
     1
290
     0
176
     1
 40
1.0
176
     1
 40
1.0
176
     1
1001
ACAD
1000
AcDbSavedByObjectVersion
1070
     0
  0
DICTIONARYVAR
  5
682B5
102
{ACAD_REACTORS
330
CC
102
}
330
CC
100
DictionaryVariables
280
     0
  1
1:1
  0
DICTIONARYVAR
  5
682B1
102
{ACAD_REACTORS
330
CC
102
}
330
CC
100
DictionaryVariables
280
     0
  1
STANDARD
  0
DICTIONARYVAR
  5
575A8
102
{ACAD_REACTORS
330
CC
102
}
330
CC
100
DictionaryVariables
280
     0
  1
STANDARD
  0
DICTIONARYVAR
  5
682B2
102
{ACAD_REACTORS
330
CC
102
}
330
CC
100
DictionaryVariables
280
     0
  1
Metric50
  0
DICTIONARYVAR
  5
682B3
102
{ACAD_REACTORS
330
CC
102
}
330
CC
100
DictionaryVariables
280
     0
  1
Metric50
  0
DICTIONARYVAR
  5
CE
102
{ACAD_REACTORS
330
CC
102
}
330
CC
100
DictionaryVariables
280
     0
  1
2
  0
DICTIONARYVAR
  5
CD
102
{ACAD_REACTORS
330
CC
102
}
330
CC
100
DictionaryVariables
280
     0
  1
1
  0
DICTIONARYVAR
  5
68279
102
{ACAD_REACTORS
330
CC
102
}
330
CC
100
DictionaryVariables
280
     0
  1
0
  0
DICTIONARYVAR
  5
682B7
102
{ACAD_REACTORS
330
CC
102
}
330
CC
100
DictionaryVariables
280
     0
  1
1
  0
DICTIONARYVAR
  5
682B8
102
{ACAD_REACTORS
330
CC
102
}
330
CC
100
DictionaryVariables
280
     0
  1
15
  0
DICTIONARYVAR
  5
682B6
102
{ACAD_REACTORS
330
CC
102
}
330
CC
100
DictionaryVariables
280
     0
  1
0
  0
DICTIONARYVAR
  5
682B4
102
{ACAD_REACTORS
330
CC
102
}
330
CC
100
DictionaryVariables
280
     0
  1
0
  0
DICTIONARYVAR
  5
68278
102
{ACAD_REACTORS
330
CC
102
}
330
CC
100
DictionaryVariables
280
     0
  1
127
  0
DICTIONARY
  5
682D4
102
{ACAD_REACTORS
330
682D2
102
}
330
682D2
100
AcDbDictionary
281
     1
  0
DICTIONARY
  5
682D3
102
{ACAD_REACTORS
330
682D2
102
}
330
682D2
100
AcDbDictionary
281
     1
  3
3100612842832
350
682CD
  3
3100612842848
350
682CE
  3
3100612842864
350
682CF
  3
3100612842880
350
682D0
  3
3100612842896
350
682D1
  0
XRECORD
  5
384F4
102
{ACAD_REACTORS
330
384F3
102
}
330
384F3
100
AcDbXrecord
280
     1
  0
DICTIONARY
  5
682D7
330
6829D
100
AcDbDictionary
280
     1
281
     1
  3
ACAD_XREC_ROUNDTRIP
360
682D8
  0
DICTIONARY
  5
682D5
330
6829B
100
AcDbDictionary
280
     1
281
     1
  3
ACAD_XREC_ROUNDTRIP
360
682D6
  0
DICTIONARY
  5
682CA
330
56CB7
100
AcDbDictionary
280
     1
281
     1
  3
ACAD_ROUNDTRIP_2008_TABLESTYLE_CELLSTYLEMAP
360
682CB
  0
XRECORD
  5
682CD
102
{ACAD_REACTORS
330
682D3
102
}
330
682D3
100
AcDbXrecord
280
     1
  1
AcDb_Thumbnail_Schema
102
{ATTRRECORD
341
682CE
  2
AcDbDs::TreatedAsObjectData
280
     1
291
     1
102
ATTRRECORD}
102
{ATTRRECORD
341
682CF
  2
AcDbDs::Legacy
280
     1
291
     1
102
ATTRRECORD}
  2
AcDbDs::ID
280
    10
 91
        8
102
{ATTRRECORD
341
682D0
  2
AcDs:Indexable
280
     1
291
     1
102
ATTRRECORD}
102
{ATTRRECORD
341
682D1
  2
AcDbDs::HandleAttribute
280
     7
282
     1
102
ATTRRECORD}
  2
Thumbnail_Data
280
    15
 91
        0
  0
XRECORD
  5
682CE
102
{ACAD_REACTORS
330
682D3
102
}
330
682D3
100
AcDbXrecord
280
     1
  1
AcDbDs::TreatedAsObjectDataSchema
  2
AcDbDs::TreatedAsObjectData
280
     1
 91
        0
  0
XRECORD
  5
682CF
102
{ACAD_REACTORS
330
682D3
102
}
330
682D3
100
AcDbXrecord
280
     1
  1
AcDbDs::LegacySchema
  2
AcDbDs::Legacy
280
     1
 91
        0
  0
XRECORD
  5
682D0
102
{ACAD_REACTORS
330
682D3
102
}
330
682D3
100
AcDbXrecord
280
     1
  1
AcDbDs::IndexedPropertySchema
  2
AcDs:Indexable
280
     1
 91
        0
  0
XRECORD
  5
682D1
102
{ACAD_REACTORS
330
682D3
102
}
330
682D3
100
AcDbXrecord
280
     1
  1
AcDbDs::HandleAttributeSchema
  2
AcDbDs::HandleAttribute
280
     7
 91
        1
284
     1
  0
XRECORD
  5
682D8
102
{ACAD_REACTORS
330
682D7
102
}
330
682D7
100
AcDbXrecord
280
     1
102
DISPLAYNAME
  1
Metric50
102
FLAGS
 90
        0
  0
XRECORD
  5
682D6
102
{ACAD_REACTORS
330
682D5
102
}
330
682D5
100
AcDbXrecord
280
     1
102
DISPLAYNAME
  1
Metric50
102
FLAGS
 90
        0
  0
CELLSTYLEMAP
  5
682CB
102
{ACAD_REACTORS
330
682CA
102
}
330
682CA
100
AcDbCellStyleMap
 90
        3
300
CELLSTYLE
  1
TABLEFORMAT_BEGIN
 90
        5
170
     1
 91
        0
 92
    32768
 62
   257
 93
        1
300
CONTENTFORMAT
  1
CONTENTFORMAT_BEGIN
 90
        0
 91
        0
 92
      512
 93
        0
300

 40
0.0
140
1.0
 94
        5
 62
     0
340
11
144
6.0
309
CONTENTFORMAT_END
171
     1
301
MARGIN
  1
CELLMARGIN_BEGIN
 40
1.5
 40
1.5
 40
1.5
 40
1.5
 40
0.18
 40
0.18
309
CELLMARGIN_END
 94
        6
 95
        1
302
GRIDFORMAT
  1
GRIDFORMAT_BEGIN
 90
        0
 91
        1
 62
     0
 92
       -2
340
0
 93
        0
 40
0.045
309
GRIDFORMAT_END
 95
        2
302
GRIDFORMAT
  1
GRIDFORMAT_BEGIN
 90
        0
 91
        1
 62
     0
 92
       -2
340
0
 93
        0
 40
0.045
309
GRIDFORMAT_END
 95
        4
302
GRIDFORMAT
  1
GRIDFORMAT_BEGIN
 90
        0
 91
        1
 62
     0
 92
       -2
340
0
 93
        0
 40
0.045
309
GRIDFORMAT_END
 95
        8
302
GRIDFORMAT
  1
GRIDFORMAT_BEGIN
 90
        0
 91
        1
 62
     0
 92
       -2
340
0
 93
        0
 40
0.045
309
GRIDFORMAT_END
 95
       16
302
GRIDFORMAT
  1
GRIDFORMAT_BEGIN
 90
        0
 91
        1
 62
     0
 92
       -2
340
0
 93
        0
 40
0.045
309
GRIDFORMAT_END
 95
       32
302
GRIDFORMAT
  1
GRIDFORMAT_BEGIN
 90
        0
 91
        1
 62
     0
 92
       -2
340
0
 93
        0
 40
0.045
309
GRIDFORMAT_END
309
TABLEFORMAT_END
  1
CELLSTYLE_BEGIN
 90
        1
 91
        1
300
_TITLE
309
CELLSTYLE_END
300
CELLSTYLE
  1
TABLEFORMAT_BEGIN
 90
        5
170
     1
 91
        0
 92
        0
 62
   257
 93
        1
300
CONTENTFORMAT
  1
CONTENTFORMAT_BEGIN
 90
        0
 91
        0
 92
      512
 93
        0
300

 40
0.0
140
1.0
 94
        5
 62
     0
340
11
144
4.5
309
CONTENTFORMAT_END
171
     1
301
MARGIN
  1
CELLMARGIN_BEGIN
 40
1.5
 40
1.5
 40
1.5
 40
1.5
 40
0.18
 40
0.18
309
CELLMARGIN_END
 94
        6
 95
        1
302
GRIDFORMAT
  1
GRIDFORMAT_BEGIN
 90
        0
 91
        1
 62
     0
 92
       -2
340
0
 93
        0
 40
0.045
309
GRIDFORMAT_END
 95
        2
302
GRIDFORMAT
  1
GRIDFORMAT_BEGIN
 90
        0
 91
        1
 62
     0
 92
       -2
340
0
 93
        0
 40
0.045
309
GRIDFORMAT_END
 95
        4
302
GRIDFORMAT
  1
GRIDFORMAT_BEGIN
 90
        0
 91
        1
 62
     0
 92
       -2
340
0
 93
        0
 40
0.045
309
GRIDFORMAT_END
 95
        8
302
GRIDFORMAT
  1
GRIDFORMAT_BEGIN
 90
        0
 91
        1
 62
     0
 92
       -2
340
0
 93
        0
 40
0.045
309
GRIDFORMAT_END
 95
       16
302
GRIDFORMAT
  1
GRIDFORMAT_BEGIN
 90
        0
 91
        1
 62
     0
 92
       -2
340
0
 93
        0
 40
0.045
309
GRIDFORMAT_END
 95
       32
302
GRIDFORMAT
  1
GRIDFORMAT_BEGIN
 90
        0
 91
        1
 62
     0
 92
       -2
340
0
 93
        0
 40
0.045
309
GRIDFORMAT_END
309
TABLEFORMAT_END
  1
CELLSTYLE_BEGIN
 90
        2
 91
        1
300
_HEADER
309
CELLSTYLE_END
300
CELLSTYLE
  1
TABLEFORMAT_BEGIN
 90
        5
170
     1
 91
        0
 92
        0
 62
   257
 93
        1
300
CONTENTFORMAT
  1
CONTENTFORMAT_BEGIN
 90
        0
 91
        0
 92
      512
 93
        0
300

 40
0.0
140
1.0
 94
        2
 62
     0
340
11
144
4.5
309
CONTENTFORMAT_END
171
     1
301
MARGIN
  1
CELLMARGIN_BEGIN
 40
1.5
 40
1.5
 40
1.5
 40
1.5
 40
0.18
 40
0.18
309
CELLMARGIN_END
 94
        6
 95
        1
302
GRIDFORMAT
  1
GRIDFORMAT_BEGIN
 90
        0
 91
        1
 62
     0
 92
       -2
340
0
 93
        0
 40
0.045
309
GRIDFORMAT_END
 95
        2
302
GRIDFORMAT
  1
GRIDFORMAT_BEGIN
 90
        0
 91
        1
 62
     0
 92
       -2
340
0
 93
        0
 40
0.045
309
GRIDFORMAT_END
 95
        4
302
GRIDFORMAT
  1
GRIDFORMAT_BEGIN
 90
        0
 91
        1
 62
     0
 92
       -2
340
0
 93
        0
 40
0.045
309
GRIDFORMAT_END
 95
        8
302
GRIDFORMAT
  1
GRIDFORMAT_BEGIN
 90
        0
 91
        1
 62
     0
 92
       -2
340
0
 93
        0
 40
0.045
309
GRIDFORMAT_END
 95
       16
302
GRIDFORMAT
  1
GRIDFORMAT_BEGIN
 90
        0
 91
        1
 62
     0
 92
       -2
340
0
 93
        0
 40
0.045
309
GRIDFORMAT_END
 95
       32
302
GRIDFORMAT
  1
GRIDFORMAT_BEGIN
 90
        0
 91
        1
 62
     0
 92
       -2
340
0
 93
        0
 40
0.045
309
GRIDFORMAT_END
309
TABLEFORMAT_END
  1
CELLSTYLE_BEGIN
 90
        3
 91
        2
300
_DATA
309
CELLSTYLE_END
  0
ENDSEC
  0
SECTION
  2
ACDSDATA
 70
     2
 71
     8
  0
ACDSSCHEMA
 90
        0
  1
AcDb_Thumbnail_Schema
  2
AcDbDs::ID
280
    10
 91
        8
  2
Thumbnail_Data
280
    15
 91
        0
101
ACDSRECORD
 95
        0
 90
        1
  2
AcDbDs::TreatedAsObjectData
280
     1
291
     1
101
ACDSRECORD
 95
        0
 90
        2
  2
AcDbDs::Legacy
280
     1
291
     1
101
ACDSRECORD
  1
AcDbDs::ID
 90
        3
  2
AcDs:Indexable
280
     1
291
     1
101
ACDSRECORD
  1
AcDbDs::ID
 90
        4
  2
AcDbDs::HandleAttribute
280
     7
282
     1
  0
ACDSSCHEMA
 90
        1
  1
AcDbDs::TreatedAsObjectDataSchema
  2
AcDbDs::TreatedAsObjectData
280
     1
 91
        0
  0
ACDSSCHEMA
 90
        2
  1
AcDbDs::LegacySchema
  2
AcDbDs::Legacy
280
     1
 91
        0
  0
ACDSSCHEMA
 90
        3
  1
AcDbDs::IndexedPropertySchema
  2
AcDs:Indexable
280
     1
 91
        0
  0
ACDSSCHEMA
 90
        4
  1
AcDbDs::HandleAttributeSchema
  2
AcDbDs::HandleAttribute
280
     7
 91
        1
284
     1
  0
ACDSRECORD
 90
        0
  2
AcDbDs::ID
280
    10
320
22
  2
Thumbnail_Data
280
    15
 94
     1166
310
89504E470D0A1A0A0000000D4948445200000100000000890803000000F46416F000000300504C5445212830FFFFFF2128300000000000000000000000000000000000000000000000000000330000660000990000CC0000FF0033000033330033660033990033CC0033FF0066000066330066660066990066CC0066FF0099
310
000099330099660099990099CC0099FF00CC0000CC3300CC6600CC9900CCCC00CCFF00FF0000FF3300FF6600FF9900FFCC00FFFF3300003300333300663300993300CC3300FF3333003333333333663333993333CC3333FF3366003366333366663366993366CC3366FF3399003399333399663399993399CC3399FF33CC00
310
33CC3333CC6633CC9933CCCC33CCFF33FF0033FF3333FF6633FF9933FFCC33FFFF6600006600336600666600996600CC6600FF6633006633336633666633996633CC6633FF6666006666336666666666996666CC6666FF6699006699336699666699996699CC6699FF66CC0066CC3366CC6666CC9966CCCC66CCFF66FF0066
310
FF3366FF6666FF9966FFCC66FFFF9900009900339900669900999900CC9900FF9933009933339933669933999933CC9933FF9966009966339966669966999966CC9966FF9999009999339999669999999999CC9999FF99CC0099CC3399CC6699CC9999CCCC99CCFF99FF0099FF3399FF6699FF9999FFCC99FFFFCC0000CC00
310
33CC0066CC0099CC00CCCC00FFCC3300CC3333CC3366CC3399CC33CCCC33FFCC6600CC6633CC6666CC6699CC66CCCC66FFCC9900CC9933CC9966CC9999CC99CCCC99FFCCCC00CCCC33CCCC66CCCC99CCCCCCCCCCFFCCFF00CCFF33CCFF66CCFF99CCFFCCCCFFFFFF0000FF0033FF0066FF0099FF00CCFF00FFFF3300FF3333
310
FF3366FF3399FF33CCFF33FFFF6600FF6633FF6666FF6699FF66CCFF66FFFF9900FF9933FF9966FF9999FF99CCFF99FFFFCC00FFCC33FFCC66FFCC99FFCCCCFFCCFFFFFF00FFFF33FFFF66FFFF99FFFFCCFFFFFF0000000D0D0D1A1A1A2828283535354343435050505D5D5D6B6B6B787878868686939393A1A1A1AEAEAEBB
310
BBBBC9C9C9D6D6D6E4E4E4F1F1F1FFFFFF0000000000000000000000000000000000000000000000000000000000002E4550F1000001494944415478DAEDDBDD6A84301080D1BCFFFBCE7DD96AD9561D1725053339E7A285740B9BCFF807DA1A000000000000000000F04B4474191F77FA7134A5ABE3030778FD68DB192D23
310
FBF165FB1F8C8FBDFEF79B749DE27EFCFB0F8596401A20DA1C01D65DE0605FFFF36BB334EA1D03B200911C032A9D075E8BFA603ED90AC83E3F4F80562E4036CD3C401340000104287521307580E4BAF62440B1FBE1933DA355DBD60208208000020820800002082080000208208000029C0528F724040000F05FF702F1D968
310
7783170374F84481155025C0F22448DCFAB774E10FB70BF4F9C6EF02930678179835401340805903FCBC7AF3E000C9B9BBCF8392DB13E17401DA0897C2C7573B7D9F158EF54593C9033C711748D766FADADCADB5FCDC5D203D3AC5C5F1514F83020820C0E401B2E37332D19B97340F3E0B245FEDEAF8B00100000000000000
310
18D01731C0FD34ABC7A0740000000049454E44AE426082
  0
ENDSEC
  0
EOF
