  0
SECTION
  2
HEADER
  9
$ACADVER
  1
AC1032
  9
$ACADMAINTVER
 90
      228
  9
$DWGCODEPAGE
  3
ANSI_1252
  9
$REQUIREDVERSIONS
160
                 0
  9
$INSBASE
 10
0.0
 20
0.0
 30
0.0
  9
$EXTMIN
 10
1.000000000000000E+20
 20
1.000000000000000E+20
 30
1.000000000000000E+20
  9
$EXTMAX
 10
-1.000000000000000E+20
 20
-1.000000000000000E+20
 30
-1.000000000000000E+20
  9
$LIMMIN
 10
0.0
 20
0.0
  9
$LIMMAX
 10
12.0
 20
9.0
  9
$ORTHOMODE
 70
     0
  9
$REGENMODE
 70
     1
  9
$FILLMODE
 70
     1
  9
$QTEXTMODE
 70
     0
  9
$MIRRTEXT
 70
     0
  9
$LTSCALE
 40
1.0
  9
$ATTMODE
 70
     1
  9
$TEXTSIZE
 40
0.2
  9
$TRACEWID
 40
0.05
  9
$TEXTSTYLE
  7
Standard
  9
$CLAYER
  8
0
  9
$CELTYPE
  6
ByLayer
  9
$CECOLOR
 62
   256
  9
$CELTSCALE
 40
1.0
  9
$DISPSILH
 70
     0
  9
$DIMSCALE
 40
1.0
  9
$DIMASZ
 40
0.18
  9
$DIMEXO
 40
0.0625
  9
$DIMDLI
 40
0.38
  9
$DIMRND
 40
0.0
  9
$DIMDLE
 40
0.0
  9
$DIMEXE
 40
0.18
  9
$DIMTP
 40
0.0
  9
$DIMTM
 40
0.0
  9
$DIMTXT
 40
0.18
  9
$DIMCEN
 40
0.09
  9
$DIMTSZ
 40
0.0
  9
$DIMTOL
 70
     0
  9
$DIMLIM
 70
     0
  9
$DIMTIH
 70
     1
  9
$DIMTOH
 70
     1
  9
$DIMSE1
 70
     0
  9
$DIMSE2
 70
     0
  9
$DIMTAD
 70
     0
  9
$DIMZIN
 70
     0
  9
$DIMBLK
  1

  9
$DIMASO
 70
     1
  9
$DIMSHO
 70
     1
  9
$DIMPOST
  1

  9
$DIMAPOST
  1

  9
$DIMALT
 70
     0
  9
$DIMALTD
 70
     2
  9
$DIMALTF
 40
25.4
  9
$DIMLFAC
 40
1.0
  9
$DIMTOFL
 70
     0
  9
$DIMTVP
 40
0.0
  9
$DIMTIX
 70
     0
  9
$DIMSOXD
 70
     0
  9
$DIMSAH
 70
     0
  9
$DIMBLK1
  1

  9
$DIMBLK2
  1

  9
$DIMSTYLE
  2
Standard
  9
$DIMCLRD
 70
     0
  9
$DIMCLRE
 70
     0
  9
$DIMCLRT
 70
     0
  9
$DIMTFAC
 40
1.0
  9
$DIMGAP
 40
0.09
  9
$DIMJUST
 70
     0
  9
$DIMSD1
 70
     0
  9
$DIMSD2
 70
     0
  9
$DIMTOLJ
 70
     1
  9
$DIMTZIN
 70
     0
  9
$DIMALTZ
 70
     0
  9
$DIMALTTZ
 70
     0
  9
$DIMUPT
 70
     0
  9
$DIMDEC
 70
     4
  9
$DIMTDEC
 70
     4
  9
$DIMALTU
 70
     2
  9
$DIMALTTD
 70
     2
  9
$DIMTXSTY
  7
Standard
  9
$DIMAUNIT
 70
     0
  9
$DIMADEC
 70
     0
  9
$DIMALTRND
 40
0.0
  9
$DIMAZIN
 70
     0
  9
$DIMDSEP
 70
    46
  9
$DIMATFIT
 70
     3
  9
$DIMFRAC
 70
     0
  9
$DIMLDRBLK
  1

  9
$DIMLUNIT
 70
     2
  9
$DIMLWD
 70
    -2
  9
$DIMLWE
 70
    -2
  9
$DIMTMOVE
 70
     0
  9
$DIMFXL
 40
1.0
  9
$DIMFXLON
 70
     0
  9
$DIMJOGANG
 40
0.7853981633974483
  9
$DIMTFILL
 70
     0
  9
$DIMTFILLCLR
 70
     0
  9
$DIMARCSYM
 70
     0
  9
$DIMLTYPE
  6

  9
$DIMLTEX1
  6

  9
$DIMLTEX2
  6

  9
$DIMTXTDIRECTION
 70
     0
  9
$LUNITS
 70
     2
  9
$LUPREC
 70
     4
  9
$SKETCHINC
 40
0.1
  9
$FILLETRAD
 40
0.0
  9
$AUNITS
 70
     0
  9
$AUPREC
 70
     0
  9
$MENU
  1
.
  9
$ELEVATION
 40
0.0
  9
$PELEVATION
 40
0.0
  9
$THICKNESS
 40
0.0
  9
$LIMCHECK
 70
     0
  9
$CHAMFERA
 40
0.0
  9
$CHAMFERB
 40
0.0
  9
$CHAMFERC
 40
0.0
  9
$CHAMFERD
 40
0.0
  9
$SKPOLY
 70
     0
  9
$TDCREATE
 40
2459992.677268519
  9
$TDUCREATE
 40
2459992.802268519
  9
$TDUPDATE
 40
2459992.677268519
  9
$TDUUPDATE
 40
2459992.802268519
  9
$TDINDWG
 40
0.0000000000
  9
$TDUSRTIMER
 40
0.0000000000
  9
$USRTIMER
 70
     1
  9
$ANGBASE
 50
0.0
  9
$ANGDIR
 70
     0
  9
$PDMODE
 70
     0
  9
$PDSIZE
 40
0.0
  9
$PLINEWID
 40
0.0
  9
$SPLFRAME
 70
     0
  9
$SPLINETYPE
 70
     6
  9
$SPLINESEGS
 70
     8
  9
$HANDSEED
  5
187
  9
$SURFTAB1
 70
     6
  9
$SURFTAB2
 70
     6
  9
$SURFTYPE
 70
     6
  9
$SURFU
 70
     6
  9
$SURFV
 70
     6
  9
$UCSBASE
  2

  9
$UCSNAME
  2

  9
$UCSORG
 10
0.0
 20
0.0
 30
0.0
  9
$UCSXDIR
 10
1.0
 20
0.0
 30
0.0
  9
$UCSYDIR
 10
0.0
 20
1.0
 30
0.0
  9
$UCSORTHOREF
  2

  9
$UCSORTHOVIEW
 70
     0
  9
$UCSORGTOP
 10
0.0
 20
0.0
 30
0.0
  9
$UCSORGBOTTOM
 10
0.0
 20
0.0
 30
0.0
  9
$UCSORGLEFT
 10
0.0
 20
0.0
 30
0.0
  9
$UCSORGRIGHT
 10
0.0
 20
0.0
 30
0.0
  9
$UCSORGFRONT
 10
0.0
 20
0.0
 30
0.0
  9
$UCSORGBACK
 10
0.0
 20
0.0
 30
0.0
  9
$PUCSBASE
  2

  9
$PUCSNAME
  2

  9
$PUCSORG
 10
0.0
 20
0.0
 30
0.0
  9
$PUCSXDIR
 10
1.0
 20
0.0
 30
0.0
  9
$PUCSYDIR
 10
0.0
 20
1.0
 30
0.0
  9
$PUCSORTHOREF
  2

  9
$PUCSORTHOVIEW
 70
     0
  9
$PUCSORGTOP
 10
0.0
 20
0.0
 30
0.0
  9
$PUCSORGBOTTOM
 10
0.0
 20
0.0
 30
0.0
  9
$PUCSORGLEFT
 10
0.0
 20
0.0
 30
0.0
  9
$PUCSORGRIGHT
 10
0.0
 20
0.0
 30
0.0
  9
$PUCSORGFRONT
 10
0.0
 20
0.0
 30
0.0
  9
$PUCSORGBACK
 10
0.0
 20
0.0
 30
0.0
  9
$USERI1
 70
     0
  9
$USERI2
 70
     0
  9
$USERI3
 70
     0
  9
$USERI4
 70
     0
  9
$USERI5
 70
     0
  9
$USERR1
 40
0.0
  9
$USERR2
 40
0.0
  9
$USERR3
 40
0.0
  9
$USERR4
 40
0.0
  9
$USERR5
 40
0.0
  9
$WORLDVIEW
 70
     1
  9
$SHADEDGE
 70
     3
  9
$SHADEDIF
 70
    70
  9
$TILEMODE
 70
     1
  9
$MAXACTVP
 70
    64
  9
$PINSBASE
 10
0.0
 20
0.0
 30
0.0
  9
$PLIMCHECK
 70
     0
  9
$PEXTMIN
 10
1.000000000000000E+20
 20
1.000000000000000E+20
 30
1.000000000000000E+20
  9
$PEXTMAX
 10
-1.000000000000000E+20
 20
-1.000000000000000E+20
 30
-1.000000000000000E+20
  9
$PLIMMIN
 10
0.0
 20
0.0
  9
$PLIMMAX
 10
12.0
 20
9.0
  9
$UNITMODE
 70
     0
  9
$VISRETAIN
 70
     1
  9
$PLINEGEN
 70
     0
  9
$PSLTSCALE
 70
     1
  9
$TREEDEPTH
 70
  3020
  9
$CMLSTYLE
  2
Standard
  9
$CMLJUST
 70
     0
  9
$CMLSCALE
 40
1.0
  9
$PROXYGRAPHICS
 70
     1
  9
$MEASUREMENT
 70
     0
  9
$CELWEIGHT
370
    -1
  9
$ENDCAPS
280
     0
  9
$JOINSTYLE
280
     0
  9
$LWDISPLAY
290
     1
  9
$INSUNITS
 70
     0
  9
$HYPERLINKBASE
  1

  9
$STYLESHEET
  1

  9
$XEDIT
290
     1
  9
$CEPSNTYPE
380
     0
  9
$PSTYLEMODE
290
     1
  9
$FINGERPRINTGUID
  2
{B402B066-B509-5041-929E-50C645242114}
  9
$VERSIONGUID
  2
{9D0F3A3E-31A7-6641-B45D-48A74F10E8E0}
  9
$EXTNAMES
290
     1
  9
$PSVPSCALE
 40
0.0
  9
$OLESTARTUP
290
     0
  9
$SORTENTS
280
   127
  9
$INDEXCTL
280
     0
  9
$HIDETEXT
280
     1
  9
$XCLIPFRAME
280
     2
  9
$HALOGAP
280
     0
  9
$OBSCOLOR
 70
   257
  9
$OBSLTYPE
280
     0
  9
$INTERSECTIONDISPLAY
280
     0
  9
$INTERSECTIONCOLOR
 70
   257
  9
$DIMASSOC
280
     2
  9
$PROJECTNAME
  1

  9
$CAMERADISPLAY
290
     0
  9
$LENSLENGTH
 40
50.0
  9
$CAMERAHEIGHT
 40
0.0
  9
$STEPSPERSEC
 40
2.0
  9
$STEPSIZE
 40
6.0
  9
$3DDWFPREC
 40
2.0
  9
$PSOLWIDTH
 40
0.25
  9
$PSOLHEIGHT
 40
4.0
  9
$LOFTANG1
 40
1.570796326794896
  9
$LOFTANG2
 40
1.570796326794896
  9
$LOFTMAG1
 40
0.0
  9
$LOFTMAG2
 40
0.0
  9
$LOFTPARAM
 70
     7
  9
$LOFTNORMALS
280
     1
  9
$LATITUDE
 40
37.795
  9
$LONGITUDE
 40
-122.394
  9
$NORTHDIRECTION
 40
0.0
  9
$TIMEZONE
 70
 -8000
  9
$LIGHTGLYPHDISPLAY
280
     1
  9
$TILEMODELIGHTSYNCH
280
     1
  9
$CMATERIAL
347
11
  9
$SOLIDHIST
280
     0
  9
$SHOWHIST
280
     1
  9
$DWFFRAME
280
     2
  9
$DGNFRAME
280
     0
  9
$REALWORLDSCALE
290
     1
  9
$INTERFERECOLOR
 62
     1
  9
$INTERFEREOBJVS
345
33
  9
$INTERFEREVPVS
346
30
  9
$CSHADOW
280
     0
  9
$SHADOWPLANELOCATION
 40
0.0
  0
ENDSEC
  0
SECTION
  2
CLASSES
  0
CLASS
  1
ACDBDICTIONARYWDFLT
  2
AcDbDictionaryWithDefault
  3
ObjectDBX Classes
 90
        0
 91
        1
280
     0
281
     0
  0
CLASS
  1
MATERIAL
  2
AcDbMaterial
  3
ObjectDBX Classes
 90
     1153
 91
        3
280
     0
281
     0
  0
CLASS
  1
VISUALSTYLE
  2
AcDbVisualStyle
  3
ObjectDBX Classes
 90
     4095
 91
       24
280
     0
281
     0
  0
CLASS
  1
SCALE
  2
AcDbScale
  3
ObjectDBX Classes
 90
     1153
 91
       17
280
     0
281
     0
  0
CLASS
  1
TABLESTYLE
  2
AcDbTableStyle
  3
ObjectDBX Classes
 90
     4095
 91
        1
280
     0
281
     0
  0
CLASS
  1
MLEADERSTYLE
  2
AcDbMLeaderStyle
  3
ACDB_MLEADERSTYLE_CLASS
 90
     4095
 91
        1
280
     0
281
     0
  0
CLASS
  1
ACDBSECTIONVIEWSTYLE
  2
AcDbSectionViewStyle
  3
ObjectDBX Classes
 90
     1025
 91
        1
280
     0
281
     0
  0
CLASS
  1
ACDBDETAILVIEWSTYLE
  2
AcDbDetailViewStyle
  3
ObjectDBX Classes
 90
     1025
 91
        1
280
     0
281
     0
  0
CLASS
  1
DICTIONARYVAR
  2
AcDbDictionaryVar
  3
ObjectDBX Classes
 90
        0
 91
        5
280
     0
281
     0
  0
CLASS
  1
CELLSTYLEMAP
  2
AcDbCellStyleMap
  3
ObjectDBX Classes
 90
     1152
 91
        1
280
     0
281
     0
  0
ENDSEC
  0
SECTION
  2
TABLES
  0
TABLE
  2
VPORT
  5
8
330
0
100
AcDbSymbolTable
 70
     1
  0
VPORT
  5
57
330
8
100
AcDbSymbolTableRecord
100
AcDbViewportTableRecord
  2
*Active
 70
     0
 10
0.0
 20
0.0
 11
1.0
 21
1.0
 12
0.0
 22
0.0
 13
0.0
 23
0.0
 14
1.0
 24
1.0
 15
0.0
 25
0.0
 16
0.0
 26
0.0
 36
1.0
 17
711.8148148148161
 27
403.9999999999995
 37
0.0
 40
650.0800000000015
 41
1.150046490004651
 42
50.0
 43
0.0
 44
0.0
 50
0.0
 51
0.0
 71
     0
 72
   100
 73
     1
 74
     1
 75
     0
 76
     0
 77
     0
 78
     0
281
     0
 65
     1
110
0.0
120
0.0
130
0.0
111
1.0
121
0.0
131
0.0
112
0.0
122
1.0
132
0.0
 79
     0
146
0.0
 60
     3
 61
     5
292
     1
282
     1
141
0.0
142
0.0
 63
   250
421
  3355443
  0
ENDTAB
  0
TABLE
  2
LTYPE
  5
5
330
0
100
AcDbSymbolTable
 70
     1
  0
LTYPE
  5
5B
330
5
100
AcDbSymbolTableRecord
100
AcDbLinetypeTableRecord
  2
ByBlock
 70
     0
  3

 72
    65
 73
     0
 40
0.0
  0
LTYPE
  5
5C
330
5
100
AcDbSymbolTableRecord
100
AcDbLinetypeTableRecord
  2
ByLayer
 70
     0
  3

 72
    65
 73
     0
 40
0.0
  0
LTYPE
  5
5D
330
5
100
AcDbSymbolTableRecord
100
AcDbLinetypeTableRecord
  2
Continuous
 70
     0
  3
Solid line
 72
    65
 73
     0
 40
0.0
  0
ENDTAB
  0
TABLE
  2
LAYER
  5
2
330
0
100
AcDbSymbolTable
 70
     2
  0
LAYER
  5
54
330
2
100
AcDbSymbolTableRecord
100
AcDbLayerTableRecord
  2
0
 70
     0
 62
     7
  6
Continuous
370
    -3
390
F
347
21
348
0
  0
LAYER
  5
78
330
2
100
AcDbSymbolTableRecord
100
AcDbLayerTableRecord
  2
1
 70
     0
 62
     7
  6
Continuous
370
     0
390
F
347
21
348
0
  0
ENDTAB
  0
TABLE
  2
STYLE
  5
3
330
0
100
AcDbSymbolTable
 70
     2
  0
STYLE
  5
55
330
3
100
AcDbSymbolTableRecord
100
AcDbTextStyleTableRecord
  2
Standard
 70
     0
 40
0.0
 41
1.0
 50
0.0
 71
     0
 42
0.2
  3
txt
  4

  0
STYLE
  5
5A
330
3
100
AcDbSymbolTableRecord
100
AcDbTextStyleTableRecord
  2
Annotative
 70
     0
 40
0.0
 41
1.0
 50
0.0
 71
     0
 42
0.2
  3
txt
  4

1001
AcadAnnotative
1000
AnnotativeData
1002
{
1070
     1
1070
     1
1002
}
  0
ENDTAB
  0
TABLE
  2
VIEW
  5
6
330
0
100
AcDbSymbolTable
 70
     0
  0
ENDTAB
  0
TABLE
  2
UCS
  5
7
330
0
100
AcDbSymbolTable
 70
     0
  0
ENDTAB
  0
TABLE
  2
APPID
  5
9
330
0
100
AcDbSymbolTable
 70
     2
  0
APPID
  5
56
330
9
100
AcDbSymbolTableRecord
100
AcDbRegAppTableRecord
  2
ACAD
 70
     0
  0
APPID
  5
5E
330
9
100
AcDbSymbolTableRecord
100
AcDbRegAppTableRecord
  2
AcadAnnotative
 70
     0
  0
ENDTAB
  0
TABLE
  2
DIMSTYLE
  5
A
330
0
100
AcDbSymbolTable
 70
     2
100
AcDbDimStyleTable
 71
     0
  0
DIMSTYLE
105
58
330
A
100
AcDbSymbolTableRecord
100
AcDbDimStyleTableRecord
  2
Standard
 70
     0
340
55
  0
DIMSTYLE
105
59
330
A
100
AcDbSymbolTableRecord
100
AcDbDimStyleTableRecord
  2
Annotative
 70
     0
340
55
1001
AcadAnnotative
1000
AnnotativeData
1002
{
1070
     1
1070
     1
1002
}
  0
ENDTAB
  0
TABLE
  2
BLOCK_RECORD
  5
1
330
0
100
AcDbSymbolTable
 70
     4
  0
BLOCK_RECORD
  5
70
330
1
100
AcDbSymbolTableRecord
100
AcDbBlockTableRecord
  2
*Model_Space
340
73
 70
     0
280
     1
281
     0
  0
BLOCK_RECORD
  5
6C
330
1
100
AcDbSymbolTableRecord
100
AcDbBlockTableRecord
  2
*Paper_Space
340
6F
 70
     0
280
     1
281
     0
  0
BLOCK_RECORD
  5
74
330
1
100
AcDbSymbolTableRecord
100
AcDbBlockTableRecord
  2
*Paper_Space0
340
77
 70
     0
280
     1
281
     0
  0
BLOCK_RECORD
  5
158
330
1
100
AcDbSymbolTableRecord
100
AcDbBlockTableRecord
  2
Block_0
340
0
102
{BLKREFS
331
159
102
}
 70
     0
280
     1
281
     0
  0
BLOCK_RECORD
  5
171
330
1
100
AcDbSymbolTableRecord
100
AcDbBlockTableRecord
  2
Block_1
340
0
102
{BLKREFS
331
172
102
}
 70
     0
280
     1
281
     0
  0
BLOCK_RECORD
  5
177
330
1
100
AcDbSymbolTableRecord
100
AcDbBlockTableRecord
  2
Block_2
340
0
102
{BLKREFS
331
178
102
}
 70
     0
280
     1
281
     0
  0
ENDTAB
  0
ENDSEC
  0
SECTION
  2
BLOCKS
  0
BLOCK
  5
71
330
70
100
AcDbEntity
  8
0
100
AcDbBlockBegin
  2
*Model_Space
 70
     0
 10
0.0
 20
0.0
 30
0.0
  3
*Model_Space
  1

  0
ENDBLK
  5
72
330
70
100
AcDbEntity
  8
0
100
AcDbBlockEnd
  0
BLOCK
  5
6D
330
6C
100
AcDbEntity
 67
     1
  8
0
100
AcDbBlockBegin
  2
*Paper_Space
 70
     0
 10
0.0
 20
0.0
 30
0.0
  3
*Paper_Space
  1

  0
ENDBLK
  5
6E
330
6C
100
AcDbEntity
 67
     1
  8
0
100
AcDbBlockEnd
  0
BLOCK
  5
75
330
74
100
AcDbEntity
 67
     1
  8
0
100
AcDbBlockBegin
  2
*Paper_Space0
 70
     0
 10
0.0
 20
0.0
 30
0.0
  3
*Paper_Space0
  1

  0
ENDBLK
  5
76
330
74
100
AcDbEntity
 67
     1
  8
0
100
AcDbBlockEnd
  0
BLOCK
  5
15A
330
158
100
AcDbEntity
  8
0
100
AcDbBlockBegin
  2
Block_0
 70
     0
 10
0.0
 20
0.0
 30
0.0
  3
Block_0
  1

  0
SPLINE
  5
15C
330
158
100
AcDbEntity
  8
1
100
AcDbSpline
210
0.0
220
0.0
230
1.0
 70
     9
 71
     3
 72
    53
 73
    49
 74
     0
 42
0.0000000001
 43
0.0000000001
 40
0.0
 40
0.0
 40
0.0
 40
0.0
 40
1.0
 40
1.0
 40
1.0
 40
2.0
 40
2.0
 40
2.0
 40
3.0
 40
3.0
 40
3.0
 40
4.0
 40
4.0
 40
4.0
 40
5.0
 40
5.0
 40
5.0
 40
6.0
 40
6.0
 40
6.0
 40
7.0
 40
7.0
 40
7.0
 40
8.0
 40
8.0
 40
8.0
 40
9.0
 40
9.0
 40
9.0
 40
10.0
 40
10.0
 40
10.0
 40
11.0
 40
11.0
 40
11.0
 40
12.0
 40
12.0
 40
12.0
 40
13.0
 40
13.0
 40
13.0
 40
14.0
 40
14.0
 40
14.0
 40
15.0
 40
15.0
 40
15.0
 40
16.0
 40
16.0
 40
16.0
 40
16.0
 10
552.5546097660335
 20
504.323178067043
 30
0.0
 10
552.5127451441521
 20
504.3936965948696
 30
0.0
 10
552.4616119074326
 20
504.4622585811521
 30
0.0
 10
552.4062397841681
 20
504.5154741691785
 30
0.0
 10
552.3532441586276
 20
504.5668052334376
 30
0.0
 10
552.2934486602535
 20
504.6110882959947
 30
0.0
 10
552.2389540324557
 20
504.6325550524406
 30
0.0
 10
552.1796169602066
 20
504.6609006129256
 30
0.0
 10
552.1231120165285
 20
504.671521327461
 30
0.0
 10
552.0716733626431
 20
504.668723192608
 30
0.0
 10
552.0203241577601
 20
504.6628153012534
 30
0.0
 10
551.9717569892291
 20
504.6421661478871
 30
0.0
 10
551.9329506278836
 20
504.6076042212116
 30
0.0
 10
551.8941442665391
 20
504.5730422945325
 30
0.0
 10
551.8651937519443
 20
504.5212634782592
 30
0.0
 10
551.8458195559706
 20
504.461985761458
 30
0.0
 10
551.8264453599958
 20
504.4027080446576
 30
0.0
 10
551.8191583767166
 20
504.3306166147158
 30
0.0
 10
551.8213554677804
 20
504.2542332206376
 30
0.0
 10
551.8235525588425
 20
504.1778498265602
 30
0.0
 10
551.8375601297566
 20
504.0982735285179
 30
0.0
 10
551.8633416190205
 20
504.0155333191832
 30
0.0
 10
551.8866515709942
 20
503.9379817498993
 30
0.0
 10
551.9217720028209
 20
503.8572372766529
 30
0.0
 10
551.9659793562031
 20
503.7847660378429
 30
0.0
 10
552.0078074165803
 20
503.714276502691
 30
0.0
 10
552.0588849705218
 20
503.6488924601253
 30
0.0
 10
552.1119362788395
 20
503.5943834521486
 30
0.0
 10
552.1674372078896
 20
503.537931935055
 30
0.0
 10
552.2247667595384
 20
503.4986431527686
 30
0.0
 10
552.2816907725582
 20
503.4722111087249
 30
0.0
 10
552.3385618980819
 20
503.4488598285115
 30
0.0
 10
552.3974771057091
 20
503.4364227774249
 30
0.0
 10
552.448789749089
 20
503.4423596614524
 30
0.0
 10
552.5002284029723
 20
503.4451577963046
 30
0.0
 10
552.5464190737785
 20
503.4676914734372
 30
0.0
 10
552.585225435123
 20
503.5022534001163
 30
0.0
 10
552.6240317964693
 20
503.5368153267937
 30
0.0
 10
552.6553981655743
 20
503.5865834467349
 30
0.0
 10
552.6747695662679
 20
503.6459583434271
 30
0.0
 10
552.6917307030125
 20
503.7071495766686
 30
0.0
 10
552.7014307455183
 20
503.7773274901719
 30
0.0
 10
552.6992336544553
 20
503.8537108842493
 30
0.0
 10
552.6947129531654
 20
503.9288980382643
 30
0.0
 10
552.680615933249
 20
504.0115840928101
 30
0.0
 10
552.6573031859952
 20
504.0892328419832
 30
0.0
 10
552.6315244920133
 20
504.1718758714268
 30
0.0
 10
552.596530070692
 20
504.2494815954996
 30
0.0
 10
552.5546097660335
 20
504.323178067043
 30
0.0
  0
HATCH
  5
15D
330
158
100
AcDbEntity
  8
1
 62
   139
440
 33554687
100
AcDbHatch
 10
0.0
 20
0.0
 30
0.0
210
0.0
220
0.0
230
1.0
  2
SOLID
 70
     1
 71
     1
 91
        1
 92
        1
 93
        2
 72
     4
 94
        3
 73
     0
 74
     0
 95
       53
 96
       49
 40
0.0
 40
0.0
 40
0.0
 40
0.0
 40
1.0
 40
1.0
 40
1.0
 40
2.0
 40
2.0
 40
2.0
 40
3.0
 40
3.0
 40
3.0
 40
4.0
 40
4.0
 40
4.0
 40
5.0
 40
5.0
 40
5.0
 40
6.0
 40
6.0
 40
6.0
 40
7.0
 40
7.0
 40
7.0
 40
8.0
 40
8.0
 40
8.0
 40
9.0
 40
9.0
 40
9.0
 40
10.0
 40
10.0
 40
10.0
 40
11.0
 40
11.0
 40
11.0
 40
12.0
 40
12.0
 40
12.0
 40
13.0
 40
13.0
 40
13.0
 40
14.0
 40
14.0
 40
14.0
 40
15.0
 40
15.0
 40
15.0
 40
16.0
 40
16.0
 40
16.0
 40
16.0
 10
552.5546097660335
 20
504.323178067043
 10
552.5127451441521
 20
504.3936965948696
 10
552.4616119074326
 20
504.4622585811521
 10
552.4062397841681
 20
504.5154741691785
 10
552.3532441586276
 20
504.5668052334376
 10
552.2934486602535
 20
504.6110882959947
 10
552.2389540324557
 20
504.6325550524406
 10
552.1796169602066
 20
504.6609006129256
 10
552.1231120165285
 20
504.671521327461
 10
552.0716733626431
 20
504.668723192608
 10
552.0203241577601
 20
504.6628153012534
 10
551.9717569892291
 20
504.6421661478871
 10
551.9329506278836
 20
504.6076042212116
 10
551.8941442665391
 20
504.5730422945325
 10
551.8651937519443
 20
504.5212634782592
 10
551.8458195559706
 20
504.461985761458
 10
551.8264453599958
 20
504.4027080446576
 10
551.8191583767166
 20
504.3306166147158
 10
551.8213554677804
 20
504.2542332206376
 10
551.8235525588425
 20
504.1778498265602
 10
551.8375601297566
 20
504.0982735285179
 10
551.8633416190205
 20
504.0155333191832
 10
551.8866515709942
 20
503.9379817498993
 10
551.9217720028209
 20
503.8572372766529
 10
551.9659793562031
 20
503.7847660378429
 10
552.0078074165803
 20
503.714276502691
 10
552.0588849705218
 20
503.6488924601253
 10
552.1119362788395
 20
503.5943834521486
 10
552.1674372078896
 20
503.537931935055
 10
552.2247667595384
 20
503.4986431527686
 10
552.2816907725582
 20
503.4722111087249
 10
552.3385618980819
 20
503.4488598285115
 10
552.3974771057091
 20
503.4364227774249
 10
552.448789749089
 20
503.4423596614524
 10
552.5002284029723
 20
503.4451577963046
 10
552.5464190737785
 20
503.4676914734372
 10
552.585225435123
 20
503.5022534001163
 10
552.6240317964693
 20
503.5368153267937
 10
552.6553981655743
 20
503.5865834467349
 10
552.6747695662679
 20
503.6459583434271
 10
552.6917307030125
 20
503.7071495766686
 10
552.7014307455183
 20
503.7773274901719
 10
552.6992336544553
 20
503.8537108842493
 10
552.6947129531654
 20
503.9288980382643
 10
552.680615933249
 20
504.0115840928101
 10
552.6573031859952
 20
504.0892328419832
 10
552.6315244920133
 20
504.1718758714268
 10
552.596530070692
 20
504.2494815954996
 10
552.5546097660335
 20
504.323178067043
 97
        0
 72
     1
 10
552.5546097660336
 20
504.323178067043
 11
552.5546097660335
 21
504.323178067043
 97
        0
 75
     2
 76
     1
 98
        1
 10
0.0
 20
0.0
450
        0
451
        0
460
0.0
461
0.0
452
        0
462
0.0
453
        0
470

  0
SPLINE
  5
15E
330
158
100
AcDbEntity
  8
1
100
AcDbSpline
210
0.0
220
0.0
230
1.0
 70
     9
 71
     3
 72
    29
 73
    25
 74
     0
 42
0.0000000001
 43
0.0000000001
 40
0.0
 40
0.0
 40
0.0
 40
0.0
 40
1.0
 40
1.0
 40
1.0
 40
2.0
 40
2.0
 40
2.0
 40
3.0
 40
3.0
 40
3.0
 40
4.0
 40
4.0
 40
4.0
 40
5.0
 40
5.0
 40
5.0
 40
6.0
 40
6.0
 40
6.0
 40
7.0
 40
7.0
 40
7.0
 40
8.0
 40
8.0
 40
8.0
 40
8.0
 10
547.7535249773445
 20
506.5271895948935
 30
0.0
 10
547.7345461561963
 20
506.6168806260411
 30
0.0
 10
547.6781283748969
 20
506.7052071472789
 30
0.0
 10
547.6138172571354
 20
506.7437646207572
 30
0.0
 10
547.5876409017073
 20
506.7582544654579
 30
0.0
 10
547.5638748102283
 20
506.7709279736082
 30
0.0
 10
547.5400749525252
 20
506.7835332945433
 30
0.0
 10
547.5400749525252
 20
506.7835332945433
 30
0.0
 10
547.4214902570293
 20
506.8371146590079
 30
0.0
 10
547.4214902570293
 20
506.8371146590079
 30
0.0
 10
547.4214902570293
 20
506.8371146590079
 30
0.0
 10
547.4400186213306
 20
506.3556774560857
 30
0.0
 10
547.4400186213306
 20
506.3556774560857
 30
0.0
 10
547.4400186213306
 20
506.3556774560857
 30
0.0
 10
547.5586033168274
 20
506.3020960916191
 30
0.0
 10
547.5586033168274
 20
506.3020960916191
 30
0.0
 10
547.6084900809564
 20
506.278110682485
 30
0.0
 10
547.6552871049452
 20
506.2783219774355
 30
0.0
 10
547.6947335856957
 20
506.2906297091467
 30
0.0
 10
547.7409270517837
 20
506.3130662063886
 30
0.0
 10
547.7675010686571
 20
506.3667295464301
 30
0.0
 10
547.762890918364
 20
506.4450264569522
 30
0.0
 10
547.7621585546757
 20
506.4704875883099
 30
0.0
 10
547.7590496932643
 20
506.4978332434366
 30
0.0
 10
547.7535249773445
 20
506.5271895948935
 30
0.0
  0
HATCH
  5
15F
330
158
100
AcDbEntity
  8
1
 62
   139
440
 33554687
100
AcDbHatch
 10
0.0
 20
0.0
 30
0.0
210
0.0
220
0.0
230
1.0
  2
SOLID
 70
     1
 71
     1
 91
        1
 92
        1
 93
        2
 72
     4
 94
        3
 73
     0
 74
     0
 95
       29
 96
       25
 40
0.0
 40
0.0
 40
0.0
 40
0.0
 40
1.0
 40
1.0
 40
1.0
 40
2.0
 40
2.0
 40
2.0
 40
3.0
 40
3.0
 40
3.0
 40
4.0
 40
4.0
 40
4.0
 40
5.0
 40
5.0
 40
5.0
 40
6.0
 40
6.0
 40
6.0
 40
7.0
 40
7.0
 40
7.0
 40
8.0
 40
8.0
 40
8.0
 40
8.0
 10
547.7535249773445
 20
506.5271895948935
 10
547.7345461561963
 20
506.6168806260411
 10
547.6781283748969
 20
506.7052071472789
 10
547.6138172571354
 20
506.7437646207572
 10
547.5876409017073
 20
506.7582544654579
 10
547.5638748102283
 20
506.7709279736082
 10
547.5400749525252
 20
506.7835332945433
 10
547.5400749525252
 20
506.7835332945433
 10
547.4214902570293
 20
506.8371146590079
 10
547.4214902570293
 20
506.8371146590079
 10
547.4214902570293
 20
506.8371146590079
 10
547.4400186213306
 20
506.3556774560857
 10
547.4400186213306
 20
506.3556774560857
 10
547.4400186213306
 20
506.3556774560857
 10
547.5586033168274
 20
506.3020960916191
 10
547.5586033168274
 20
506.3020960916191
 10
547.6084900809564
 20
506.278110682485
 10
547.6552871049452
 20
506.2783219774355
 10
547.6947335856957
 20
506.2906297091467
 10
547.7409270517837
 20
506.3130662063886
 10
547.7675010686571
 20
506.3667295464301
 10
547.762890918364
 20
506.4450264569522
 10
547.7621585546757
 20
506.4704875883099
 10
547.7590496932643
 20
506.4978332434366
 10
547.7535249773445
 20
506.5271895948935
 97
        0
 72
     1
 10
547.7535249773445
 20
506.5271895948935
 11
547.7535249773445
 21
506.5271895948935
 97
        0
 75
     2
 76
     1
 98
        1
 10
0.0
 20
0.0
450
        0
451
        0
460
0.0
461
0.0
452
        0
462
0.0
453
        0
470

  0
LWPOLYLINE
  5
160
330
158
100
AcDbEntity
  8
1
100
AcDbPolyline
 90
        3
 70
     1
 43
0.0
 10
548.8005350222538
 20
505.4224839048756
 10
549.1706414536056
 20
505.2533974620037
 10
548.9610927257153
 20
505.9454728067612
  0
HATCH
  5
161
330
158
100
AcDbEntity
  8
1
 62
   139
440
 33554687
100
AcDbHatch
 10
0.0
 20
0.0
 30
0.0
210
0.0
220
0.0
230
1.0
  2
SOLID
 70
     1
 71
     1
 91
        1
 92
        1
 93
        3
 72
     1
 10
548.8005350222538
 20
505.4224839048756
 11
549.1706414536056
 21
505.2533974620037
 72
     1
 10
549.1706414536056
 20
505.2533974620037
 11
548.9610927257153
 21
505.9454728067612
 72
     1
 10
548.9610927257153
 20
505.9454728067612
 11
548.8005350222538
 21
505.4224839048756
 97
        1
330
160
 75
     2
 76
     1
 98
        1
 10
0.0
 20
0.0
450
        0
451
        0
460
0.0
461
0.0
452
        0
462
0.0
453
        0
470

  0
LWPOLYLINE
  5
162
330
158
100
AcDbEntity
  8
1
100
AcDbPolyline
 90
        3
 70
     1
 43
0.0
 10
558.1853839532668
 20
501.1296246683514
 10
558.5554903846186
 20
500.9605382254813
 10
558.3483181544525
 20
501.6507290464696
  0
HATCH
  5
163
330
158
100
AcDbEntity
  8
1
 62
   139
440
 33554687
100
AcDbHatch
 10
0.0
 20
0.0
 30
0.0
210
0.0
220
0.0
230
1.0
  2
SOLID
 70
     1
 71
     1
 91
        1
 92
        1
 93
        3
 72
     1
 10
558.1853839532668
 20
501.1296246683514
 11
558.5554903846186
 21
500.9605382254813
 72
     1
 10
558.5554903846186
 20
500.9605382254813
 11
558.3483181544525
 21
501.6507290464696
 72
     1
 10
558.3483181544525
 20
501.6507290464696
 11
558.1853839532668
 21
501.1296246683514
 97
        1
330
162
 75
     2
 76
     1
 98
        1
 10
0.0
 20
0.0
450
        0
451
        0
460
0.0
461
0.0
452
        0
462
0.0
453
        0
470

  0
SPLINE
  5
164
330
158
100
AcDbEntity
  8
1
100
AcDbSpline
210
0.0
220
0.0
230
1.0
 70
    11
 71
     3
 72
    29
 73
    25
 74
     0
 42
0.0000000001
 43
0.0000000001
 40
0.0
 40
0.0
 40
0.0
 40
0.0
 40
1.0
 40
1.0
 40
1.0
 40
2.0
 40
2.0
 40
2.0
 40
3.0
 40
3.0
 40
3.0
 40
4.0
 40
4.0
 40
4.0
 40
5.0
 40
5.0
 40
5.0
 40
6.0
 40
6.0
 40
6.0
 40
7.0
 40
7.0
 40
7.0
 40
8.0
 40
8.0
 40
8.0
 40
8.0
 10
558.7925737711575
 20
500.174456255826
 30
0.0
 10
558.7925737711575
 20
500.174456255826
 30
0.0
 10
558.6683016956413
 20
500.5872354644634
 30
0.0
 10
558.6683016956413
 20
500.5872354644634
 30
0.0
 10
558.6683016956413
 20
500.5872354644634
 30
0.0
 10
558.098813575063
 20
500.8489986221211
 30
0.0
 10
558.098813575063
 20
500.8489986221211
 30
0.0
 10
558.098813575063
 20
500.8489986221211
 30
0.0
 10
558.0024431733863
 20
500.5364491835917
 30
0.0
 10
558.0024431733863
 20
500.5364491835917
 30
0.0
 10
558.0024431733863
 20
500.5364491835917
 30
0.0
 10
557.6987504199587
 20
500.6746172585044
 30
0.0
 10
557.6987504199587
 20
500.6746172585044
 30
0.0
 10
557.6987504199587
 20
500.6746172585044
 30
0.0
 10
558.1852468535144
 20
502.2398541111697
 30
0.0
 10
558.1852468535144
 20
502.2398541111697
 30
0.0
 10
558.1852468535144
 20
502.2398541111697
 30
0.0
 10
558.4700187551934
 20
502.1073835604783
 30
0.0
 10
558.4700187551934
 20
502.1073835604783
 30
0.0
 10
558.4700187551934
 20
502.1073835604783
 30
0.0
 10
559.093945709641
 20
500.0349947609629
 30
0.0
 10
559.093945709641
 20
500.0349947609629
 30
0.0
 10
559.093945709641
 20
500.0349947609629
 30
0.0
 10
558.7925737711575
 20
500.174456255826
 30
0.0
 10
558.7925737711575
 20
500.174456255826
 30
0.0
  0
SPLINE
  5
165
330
158
100
AcDbEntity
  8
1
100
AcDbSpline
210
0.0
220
0.0
230
1.0
 70
    11
 71
     3
 72
    35
 73
    31
 74
     0
 42
0.0000000001
 43
0.0000000001
 40
0.0
 40
0.0
 40
0.0
 40
0.0
 40
1.0
 40
1.0
 40
1.0
 40
2.0
 40
2.0
 40
2.0
 40
3.0
 40
3.0
 40
3.0
 40
4.0
 40
4.0
 40
4.0
 40
5.0
 40
5.0
 40
5.0
 40
6.0
 40
6.0
 40
6.0
 40
7.0
 40
7.0
 40
7.0
 40
8.0
 40
8.0
 40
8.0
 40
9.0
 40
9.0
 40
9.0
 40
10.0
 40
10.0
 40
10.0
 40
10.0
 10
557.5445919484154
 20
500.7439678551937
 30
0.0
 10
557.5445919484154
 20
500.7439678551937
 30
0.0
 10
557.2361124333164
 20
500.885836790424
 30
0.0
 10
557.2361124333164
 20
500.885836790424
 30
0.0
 10
557.2361124333164
 20
500.885836790424
 30
0.0
 10
556.55856735834
 20
502.3815833058161
 30
0.0
 10
556.55856735834
 20
502.3815833058161
 30
0.0
 10
556.55856735834
 20
502.3815833058161
 30
0.0
 10
556.6049636302632
 20
501.174749268508
 30
0.0
 10
556.6049636302632
 20
501.174749268508
 30
0.0
 10
556.6049636302632
 20
501.174749268508
 30
0.0
 10
556.2965178813865
 20
501.3166863909545
 30
0.0
 10
556.2965178813865
 20
501.3166863909545
 30
0.0
 10
556.2965178813865
 20
501.3166863909545
 30
0.0
 10
556.2278920699409
 20
503.1323894605439
 30
0.0
 10
556.2278920699409
 20
503.1323894605439
 30
0.0
 10
556.2278920699409
 20
503.1323894605439
 30
0.0
 10
556.5363743803199
 20
502.9904233454235
 30
0.0
 10
556.5363743803199
 20
502.9904233454235
 30
0.0
 10
556.5363743803199
 20
502.9904233454235
 30
0.0
 10
557.2114141517858
 20
501.4997972828669
 30
0.0
 10
557.2114141517858
 20
501.4997972828669
 30
0.0
 10
557.2114141517858
 20
501.4997972828669
 30
0.0
 10
557.165110124145
 20
502.7034243837833
 30
0.0
 10
557.165110124145
 20
502.7034243837833
 30
0.0
 10
557.165110124145
 20
502.7034243837833
 30
0.0
 10
557.4734636287394
 20
502.5646941977266
 30
0.0
 10
557.4734636287394
 20
502.5646941977266
 30
0.0
 10
557.4734636287394
 20
502.5646941977266
 30
0.0
 10
557.5445919484154
 20
500.7439678551937
 30
0.0
 10
557.5445919484154
 20
500.7439678551937
 30
0.0
  0
SPLINE
  5
166
330
158
100
AcDbEntity
  8
1
100
AcDbSpline
210
0.0
220
0.0
230
1.0
 70
    11
 71
     3
 72
    17
 73
    13
 74
     0
 42
0.0000000001
 43
0.0000000001
 40
0.0
 40
0.0
 40
0.0
 40
0.0
 40
1.0
 40
1.0
 40
1.0
 40
2.0
 40
2.0
 40
2.0
 40
3.0
 40
3.0
 40
3.0
 40
4.0
 40
4.0
 40
4.0
 40
4.0
 10
556.0616884266146
 20
501.4219935887931
 30
0.0
 10
556.0616884266146
 20
501.4219935887931
 30
0.0
 10
555.7532061162373
 20
501.5639597039153
 30
0.0
 10
555.7532061162373
 20
501.5639597039153
 30
0.0
 10
555.7532061162373
 20
501.5639597039153
 30
0.0
 10
555.6822066023451
 20
503.3814501173829
 30
0.0
 10
555.6822066023451
 20
503.3814501173829
 30
0.0
 10
555.6822066023451
 20
503.3814501173829
 30
0.0
 10
555.9905601069403
 20
503.242719931327
 30
0.0
 10
555.9905601069403
 20
503.242719931327
 30
0.0
 10
555.9905601069403
 20
503.242719931327
 30
0.0
 10
556.0616884266146
 20
501.4219935887931
 30
0.0
 10
556.0616884266146
 20
501.4219935887931
 30
0.0
  0
SPLINE
  5
167
330
158
100
AcDbEntity
  8
1
100
AcDbSpline
210
0.0
220
0.0
230
1.0
 70
    11
 71
     3
 72
    29
 73
    25
 74
     0
 42
0.0000000001
 43
0.0000000001
 40
0.0
 40
0.0
 40
0.0
 40
0.0
 40
1.0
 40
1.0
 40
1.0
 40
2.0
 40
2.0
 40
2.0
 40
3.0
 40
3.0
 40
3.0
 40
4.0
 40
4.0
 40
4.0
 40
5.0
 40
5.0
 40
5.0
 40
6.0
 40
6.0
 40
6.0
 40
7.0
 40
7.0
 40
7.0
 40
8.0
 40
8.0
 40
8.0
 40
8.0
 10
555.4969900662363
 20
503.1456217845134
 30
0.0
 10
555.4969900662363
 20
503.1456217845134
 30
0.0
 10
555.1672132016638
 20
503.2950727677325
 30
0.0
 10
555.1672132016638
 20
503.2950727677325
 30
0.0
 10
555.1672132016638
 20
503.2950727677325
 30
0.0
 10
555.2240813286589
 20
501.8061555891417
 30
0.0
 10
555.2240813286589
 20
501.8061555891417
 30
0.0
 10
555.2240813286589
 20
501.8061555891417
 30
0.0
 10
554.915638375065
 20
501.9479955317001
 30
0.0
 10
554.915638375065
 20
501.9479955317001
 30
0.0
 10
554.915638375065
 20
501.9479955317001
 30
0.0
 10
554.8588231355661
 20
503.4338319464596
 30
0.0
 10
554.8588231355661
 20
503.4338319464596
 30
0.0
 10
554.8588231355661
 20
503.4338319464596
 30
0.0
 10
554.5265775289871
 20
503.5883743898421
 30
0.0
 10
554.5265775289871
 20
503.5883743898421
 30
0.0
 10
554.5265775289871
 20
503.5883743898421
 30
0.0
 10
554.51485640604
 20
503.9151312881667
 30
0.0
 10
554.51485640604
 20
503.9151312881667
 30
0.0
 10
554.51485640604
 20
503.9151312881667
 30
0.0
 10
555.4852351770677
 20
503.472310495621
 30
0.0
 10
555.4852351770677
 20
503.472310495621
 30
0.0
 10
555.4852351770677
 20
503.472310495621
 30
0.0
 10
555.4969900662363
 20
503.1456217845134
 30
0.0
 10
555.4969900662363
 20
503.1456217845134
 30
0.0
  0
SPLINE
  5
168
330
158
100
AcDbEntity
  8
1
100
AcDbSpline
210
0.0
220
0.0
230
1.0
 70
    11
 71
     3
 72
    35
 73
    31
 74
     0
 42
0.0000000001
 43
0.0000000001
 40
0.0
 40
0.0
 40
0.0
 40
0.0
 40
1.0
 40
1.0
 40
1.0
 40
2.0
 40
2.0
 40
2.0
 40
3.0
 40
3.0
 40
3.0
 40
4.0
 40
4.0
 40
4.0
 40
5.0
 40
5.0
 40
5.0
 40
6.0
 40
6.0
 40
6.0
 40
7.0
 40
7.0
 40
7.0
 40
8.0
 40
8.0
 40
8.0
 40
9.0
 40
9.0
 40
9.0
 40
10.0
 40
10.0
 40
10.0
 40
10.0
 10
554.3865107922101
 20
502.1902885968147
 30
0.0
 10
554.3865107922101
 20
502.1902885968147
 30
0.0
 10
554.0781207261106
 20
502.3290477755454
 30
0.0
 10
554.0781207261106
 20
502.3290477755454
 30
0.0
 10
554.0781207261106
 20
502.3290477755454
 30
0.0
 10
553.4028992613639
 20
503.8259905309941
 30
0.0
 10
553.4028992613639
 20
503.8259905309941
 30
0.0
 10
553.4028992613639
 20
503.8259905309941
 30
0.0
 10
553.4493877775666
 20
502.6159495572955
 30
0.0
 10
553.4493877775666
 20
502.6159495572955
 30
0.0
 10
553.4493877775666
 20
502.6159495572955
 30
0.0
 10
553.1409420286909
 20
502.7578866797439
 30
0.0
 10
553.1409420286909
 20
502.7578866797439
 30
0.0
 10
553.1409420286909
 20
502.7578866797439
 30
0.0
 10
553.0698137090166
 20
504.5786130222759
 30
0.0
 10
553.0698137090166
 20
504.5786130222759
 30
0.0
 10
553.0698137090166
 20
504.5786130222759
 30
0.0
 10
553.3807062833411
 20
504.4348305706052
 30
0.0
 10
553.3807062833411
 20
504.4348305706052
 30
0.0
 10
553.3807062833411
 20
504.4348305706052
 30
0.0
 10
554.0558382990902
 20
502.9409975716553
 30
0.0
 10
554.0558382990902
 20
502.9409975716553
 30
0.0
 10
554.0558382990902
 20
502.9409975716553
 30
0.0
 10
554.009442027167
 20
504.1478316089624
 30
0.0
 10
554.009442027167
 20
504.1478316089624
 30
0.0
 10
554.009442027167
 20
504.1478316089624
 30
0.0
 10
554.3178877760446
 20
504.005894486514
 30
0.0
 10
554.3178877760446
 20
504.005894486514
 30
0.0
 10
554.3178877760446
 20
504.005894486514
 30
0.0
 10
554.3865107922101
 20
502.1902885968147
 30
0.0
 10
554.3865107922101
 20
502.1902885968147
 30
0.0
  0
SPLINE
  5
169
330
158
100
AcDbEntity
  8
1
100
AcDbSpline
210
0.0
220
0.0
230
1.0
 70
     9
 71
     3
 72
    53
 73
    49
 74
     0
 42
0.0000000001
 43
0.0000000001
 40
0.0
 40
0.0
 40
0.0
 40
0.0
 40
1.0
 40
1.0
 40
1.0
 40
2.0
 40
2.0
 40
2.0
 40
3.0
 40
3.0
 40
3.0
 40
4.0
 40
4.0
 40
4.0
 40
5.0
 40
5.0
 40
5.0
 40
6.0
 40
6.0
 40
6.0
 40
7.0
 40
7.0
 40
7.0
 40
8.0
 40
8.0
 40
8.0
 40
9.0
 40
9.0
 40
9.0
 40
10.0
 40
10.0
 40
10.0
 40
11.0
 40
11.0
 40
11.0
 40
12.0
 40
12.0
 40
12.0
 40
13.0
 40
13.0
 40
13.0
 40
14.0
 40
14.0
 40
14.0
 40
15.0
 40
15.0
 40
15.0
 40
16.0
 40
16.0
 40
16.0
 40
16.0
 10
552.9473189433137
 20
503.3844387047611
 30
0.0
 10
552.9149513548581
 20
503.2887426023717
 30
0.0
 10
552.8658020363191
 20
503.206354137048
 30
0.0
 10
552.8018256207978
 20
503.1512972944238
 30
0.0
 10
552.737941449558
 20
503.0930335154107
 30
0.0
 10
552.6591936198328
 20
503.0621303517655
 30
0.0
 10
552.5728578708094
 20
503.0528182615007
 30
0.0
 10
552.4863961112823
 20
503.0466449204068
 30
0.0
 10
552.39218106517
 20
503.0653275744279
 30
0.0
 10
552.2972674215907
 20
503.1095395470292
 30
0.0
 10
552.2024122560706
 20
503.1504763960165
 30
0.0
 10
552.1067662488048
 20
503.2201494999736
 30
0.0
 10
552.0176461768087
 20
503.3063942349254
 30
0.0
 10
551.9261524023686
 20
503.3944263137518
 30
0.0
 10
551.8434103385825
 20
503.5036275598031
 30
0.0
 10
551.772165460301
 20
503.6192857037367
 30
0.0
 10
551.7032441922456
 20
503.7361400877362
 30
0.0
 10
551.6432591234106
 20
503.8677497661719
 30
0.0
 10
551.6043897107665
 20
503.9980940895129
 30
0.0
 10
551.5631410051146
 20
504.1304201165121
 30
0.0
 10
551.540647783926
 20
504.2603135410299
 30
0.0
 10
551.5347911610442
 20
504.3831870286994
 30
0.0
 10
551.5312187916061
 20
504.5073829289949
 30
0.0
 10
551.5442464589705
 20
504.6245878851141
 30
0.0
 10
551.5766140474251
 20
504.7202839875044
 30
0.0
 10
551.6088893915984
 20
504.819187026289
 30
0.0
 10
551.6580021486342
 20
504.9016044842846
 30
0.0
 10
551.7219785641555
 20
504.9566613269062
 30
0.0
 10
551.7859549796766
 20
505.0117181695286
 30
0.0
 10
551.8621975058922
 20
505.0477417860074
 30
0.0
 10
551.9510385584235
 20
505.0519334234395
 30
0.0
 10
552.0374080736692
 20
505.0613137009277
 30
0.0
 10
552.1293023048383
 20
505.0413376269516
 30
0.0
 10
552.2265367633626
 20
504.9984190743043
 30
0.0
 10
552.3190711139359
 20
504.9561888053631
 30
0.0
 10
552.4170379361494
 20
504.8878091213555
 30
0.0
 10
552.5061580081455
 20
504.8015643864073
 30
0.0
 10
552.5977440268661
 20
504.7103253711894
 30
0.0
 10
552.6803938463699
 20
504.6043310615323
 30
0.0
 10
552.7493179097055
 20
504.4873794976447
 30
0.0
 10
552.8205599927059
 20
504.3718185335965
 30
0.0
 10
552.8782242465967
 20
504.2389154352104
 30
0.0
 10
552.9195067184692
 20
504.1066575954273
 30
0.0
 10
552.9607919856216
 20
503.9743025757543
 30
0.0
 10
552.9832486453087
 20
503.8444381439094
 30
0.0
 10
552.9891975124719
 20
503.7183577198493
 30
0.0
 10
552.9926776376287
 20
503.5973687559462
 30
0.0
 10
552.9795970827672
 20
503.4832445636547
 30
0.0
 10
552.9473189433137
 20
503.3844387047611
 30
0.0
  0
SPLINE
  5
16A
330
158
100
AcDbEntity
  8
1
100
AcDbSpline
210
0.0
220
0.0
230
1.0
 70
    11
 71
     3
 72
    44
 73
    40
 74
     0
 42
0.0000000001
 43
0.0000000001
 40
0.0
 40
0.0
 40
0.0
 40
0.0
 40
1.0
 40
1.0
 40
1.0
 40
2.0
 40
2.0
 40
2.0
 40
3.0
 40
3.0
 40
3.0
 40
4.0
 40
4.0
 40
4.0
 40
5.0
 40
5.0
 40
5.0
 40
6.0
 40
6.0
 40
6.0
 40
7.0
 40
7.0
 40
7.0
 40
8.0
 40
8.0
 40
8.0
 40
9.0
 40
9.0
 40
9.0
 40
10.0
 40
10.0
 40
10.0
 40
11.0
 40
11.0
 40
11.0
 40
12.0
 40
12.0
 40
12.0
 40
13.0
 40
13.0
 40
13.0
 40
13.0
 10
551.2262376268436
 20
503.6320799894192
 30
0.0
 10
551.2262376268436
 20
503.6320799894192
 30
0.0
 10
551.0335447402349
 20
504.8771499207541
 30
0.0
 10
551.0335447402349
 20
504.8771499207541
 30
0.0
 10
551.0335447402349
 20
504.8771499207541
 30
0.0
 10
550.7682047085872
 20
503.8459153539179
 30
0.0
 10
550.7682047085872
 20
503.8459153539179
 30
0.0
 10
550.7682047085872
 20
503.8459153539179
 30
0.0
 10
550.587922769113
 20
503.92667503148
 30
0.0
 10
550.587922769113
 20
503.92667503148
 30
0.0
 10
550.587922769113
 20
503.92667503148
 30
0.0
 10
550.2339610390609
 20
505.2436001797641
 30
0.0
 10
550.2339610390609
 20
505.2436001797641
 30
0.0
 10
550.2339610390609
 20
505.2436001797641
 30
0.0
 10
550.1299820951398
 20
504.1373034595854
 30
0.0
 10
550.1299820951398
 20
504.1373034595854
 30
0.0
 10
550.1299820951398
 20
504.1373034595854
 30
0.0
 10
549.8286658394354
 20
504.2735870107299
 30
0.0
 10
549.8286658394354
 20
504.2735870107299
 30
0.0
 10
549.8286658394354
 20
504.2735870107299
 30
0.0
 10
549.9902087315931
 20
505.9845449936228
 30
0.0
 10
549.9902087315931
 20
505.9845449936228
 30
0.0
 10
549.9902087315931
 20
505.9845449936228
 30
0.0
 10
550.2985622361893
 20
505.8458148075678
 30
0.0
 10
550.2985622361893
 20
505.8458148075678
 30
0.0
 10
550.2985622361893
 20
505.8458148075678
 30
0.0
 10
550.6551187187506
 20
504.5206594499486
 30
0.0
 10
550.6551187187506
 20
504.5206594499486
 30
0.0
 10
550.6551187187506
 20
504.5206594499486
 30
0.0
 10
550.9203136186187
 20
505.5581817170077
 30
0.0
 10
550.9203136186187
 20
505.5581817170077
 30
0.0
 10
550.9203136186187
 20
505.5581817170077
 30
0.0
 10
551.2287036847173
 20
505.4194225382779
 30
0.0
 10
551.2287036847173
 20
505.4194225382779
 30
0.0
 10
551.2287036847173
 20
505.4194225382779
 30
0.0
 10
551.5299303802703
 20
503.4939119145073
 30
0.0
 10
551.5299303802703
 20
503.4939119145073
 30
0.0
 10
551.5299303802703
 20
503.4939119145073
 30
0.0
 10
551.2262376268436
 20
503.6320799894192
 30
0.0
 10
551.2262376268436
 20
503.6320799894192
 30
0.0
  0
SPLINE
  5
16B
330
158
100
AcDbEntity
  8
1
100
AcDbSpline
210
0.0
220
0.0
230
1.0
 70
    11
 71
     3
 72
    29
 73
    25
 74
     0
 42
0.0000000001
 43
0.0000000001
 40
0.0
 40
0.0
 40
0.0
 40
0.0
 40
1.0
 40
1.0
 40
1.0
 40
2.0
 40
2.0
 40
2.0
 40
3.0
 40
3.0
 40
3.0
 40
4.0
 40
4.0
 40
4.0
 40
5.0
 40
5.0
 40
5.0
 40
6.0
 40
6.0
 40
6.0
 40
7.0
 40
7.0
 40
7.0
 40
8.0
 40
8.0
 40
8.0
 40
8.0
 10
549.4063883905128
 20
504.4653364501073
 30
0.0
 10
549.4063883905128
 20
504.4653364501073
 30
0.0
 10
549.2820240707124
 20
504.8813225951362
 30
0.0
 10
549.2820240707124
 20
504.8813225951362
 30
0.0
 10
549.2820240707124
 20
504.8813225951362
 30
0.0
 10
548.7126647559198
 20
505.1398498237303
 30
0.0
 10
548.7126647559198
 20
505.1398498237303
 30
0.0
 10
548.7126647559198
 20
505.1398498237303
 30
0.0
 10
548.6162943542431
 20
504.8273003852009
 30
0.0
 10
548.6162943542431
 20
504.8273003852009
 30
0.0
 10
548.6162943542431
 20
504.8273003852009
 30
0.0
 10
548.3150146600437
 20
504.9635549436715
 30
0.0
 10
548.3150146600437
 20
504.9635549436715
 30
0.0
 10
548.3150146600437
 20
504.9635549436715
 30
0.0
 10
548.7990980343711
 20
506.5307053127781
 30
0.0
 10
548.7990980343711
 20
506.5307053127781
 30
0.0
 10
548.7990980343711
 20
506.5307053127781
 30
0.0
 10
549.0837776917678
 20
506.4014416984782
 30
0.0
 10
549.0837776917678
 20
506.4014416984782
 30
0.0
 10
549.0837776917678
 20
506.4014416984782
 30
0.0
 10
549.7076680847121
 20
504.3290818916375
 30
0.0
 10
549.7076680847121
 20
504.3290818916375
 30
0.0
 10
549.7076680847121
 20
504.3290818916375
 30
0.0
 10
549.4063883905128
 20
504.4653364501073
 30
0.0
 10
549.4063883905128
 20
504.4653364501073
 30
0.0
  0
SPLINE
  5
16C
330
158
100
AcDbEntity
  8
1
100
AcDbSpline
210
0.0
220
0.0
230
1.0
 70
    11
 71
     3
 72
    32
 73
    28
 74
     0
 42
0.0000000001
 43
0.0000000001
 40
0.0
 40
0.0
 40
0.0
 40
0.0
 40
1.0
 40
1.0
 40
1.0
 40
2.0
 40
2.0
 40
2.0
 40
3.0
 40
3.0
 40
3.0
 40
4.0
 40
4.0
 40
4.0
 40
5.0
 40
5.0
 40
5.0
 40
6.0
 40
6.0
 40
6.0
 40
7.0
 40
7.0
 40
7.0
 40
8.0
 40
8.0
 40
8.0
 40
9.0
 40
9.0
 40
9.0
 40
9.0
 10
547.8546609268432
 20
505.1760968882162
 30
0.0
 10
547.8546609268432
 20
505.1760968882162
 30
0.0
 10
547.4504565067181
 20
506.041238774258
 30
0.0
 10
547.4504565067181
 20
506.041238774258
 30
0.0
 10
547.4504565067181
 20
506.041238774258
 30
0.0
 10
547.4798206213163
 20
505.3458034275772
 30
0.0
 10
547.4798206213163
 20
505.3458034275772
 30
0.0
 10
547.4798206213163
 20
505.3458034275772
 30
0.0
 10
547.1689646084923
 20
505.4895568865759
 30
0.0
 10
547.1689646084923
 20
505.4895568865759
 30
0.0
 10
547.1689646084923
 20
505.4895568865759
 30
0.0
 10
547.1002465527654
 20
507.3084668925567
 30
0.0
 10
547.1002465527654
 20
507.3084668925567
 30
0.0
 10
547.1002465527654
 20
507.3084668925567
 30
0.0
 10
547.627050525396
 20
507.0649775873789
 30
0.0
 10
547.627050525396
 20
507.0649775873789
 30
0.0
 10
547.8238931448886
 20
506.977353138207
 30
0.0
 10
547.9998175558375
 20
506.7226575052618
 30
0.0
 10
548.0473228324354
 20
506.4547956121314
 30
0.0
 10
548.105326870469
 20
506.147365454547
 30
0.0
 10
547.9710011131174
 20
505.9333825151043
 30
0.0
 10
547.7496285588549
 20
505.9782578533631
 30
0.0
 10
547.7496285588549
 20
505.9782578533631
 30
0.0
 10
548.1963011587622
 20
505.0203722372025
 30
0.0
 10
548.1963011587622
 20
505.0203722372025
 30
0.0
 10
548.1963011587622
 20
505.0203722372025
 30
0.0
 10
547.8546609268432
 20
505.1760968882162
 30
0.0
 10
547.8546609268432
 20
505.1760968882162
 30
0.0
  0
SPLINE
  5
16D
330
158
100
AcDbEntity
  8
1
100
AcDbSpline
210
0.0
220
0.0
230
1.0
 70
    11
 71
     3
 72
    29
 73
    25
 74
     0
 42
0.0000000001
 43
0.0000000001
 40
0.0
 40
0.0
 40
0.0
 40
0.0
 40
1.0
 40
1.0
 40
1.0
 40
2.0
 40
2.0
 40
2.0
 40
3.0
 40
3.0
 40
3.0
 40
4.0
 40
4.0
 40
4.0
 40
5.0
 40
5.0
 40
5.0
 40
6.0
 40
6.0
 40
6.0
 40
7.0
 40
7.0
 40
7.0
 40
8.0
 40
8.0
 40
8.0
 40
8.0
 10
546.9151222609371
 20
507.0694316232957
 30
0.0
 10
546.9151222609371
 20
507.0694316232957
 30
0.0
 10
546.5853453963664
 20
507.2188826065157
 30
0.0
 10
546.5853453963664
 20
507.2188826065157
 30
0.0
 10
546.5853453963664
 20
507.2188826065157
 30
0.0
 10
546.6422500848657
 20
505.7299364352529
 30
0.0
 10
546.6422500848657
 20
505.7299364352529
 30
0.0
 10
546.6422500848657
 20
505.7299364352529
 30
0.0
 10
546.3313575105384
 20
505.8737188869226
 30
0.0
 10
546.3313575105384
 20
505.8737188869226
 30
0.0
 10
546.3313575105384
 20
505.8737188869226
 30
0.0
 10
546.2745788325419
 20
507.3595263090128
 30
0.0
 10
546.2745788325419
 20
507.3595263090128
 30
0.0
 10
546.2745788325419
 20
507.3595263090128
 30
0.0
 10
545.944746285193
 20
507.5121552359523
 30
0.0
 10
545.944746285193
 20
507.5121552359523
 30
0.0
 10
545.944746285193
 20
507.5121552359523
 30
0.0
 10
545.9306148982987
 20
507.8407284708273
 30
0.0
 10
545.9306148982987
 20
507.8407284708273
 30
0.0
 10
545.9306148982987
 20
507.8407284708273
 30
0.0
 10
546.9033673717676
 20
507.3961203344042
 30
0.0
 10
546.9033673717676
 20
507.3961203344042
 30
0.0
 10
546.9033673717676
 20
507.3961203344042
 30
0.0
 10
546.9151222609371
 20
507.0694316232957
 30
0.0
 10
546.9151222609371
 20
507.0694316232957
 30
0.0
  0
SPLINE
  5
16E
330
158
100
AcDbEntity
  8
1
100
AcDbSpline
210
0.0
220
0.0
230
1.0
 70
     9
 71
     3
 72
    41
 73
    37
 74
     0
 42
0.0000000001
 43
0.0000000001
 40
0.0
 40
0.0
 40
0.0
 40
0.0
 40
1.0
 40
1.0
 40
1.0
 40
2.0
 40
2.0
 40
2.0
 40
3.0
 40
3.0
 40
3.0
 40
4.0
 40
4.0
 40
4.0
 40
5.0
 40
5.0
 40
5.0
 40
6.0
 40
6.0
 40
6.0
 40
7.0
 40
7.0
 40
7.0
 40
8.0
 40
8.0
 40
8.0
 40
9.0
 40
9.0
 40
9.0
 40
10.0
 40
10.0
 40
10.0
 40
11.0
 40
11.0
 40
11.0
 40
12.0
 40
12.0
 40
12.0
 40
12.0
 10
559.9818545664111
 20
502.3773195540552
 30
0.0
 10
559.859020820566
 20
502.5773800064562
 30
0.0
 10
559.6903963519817
 20
502.7422444032618
 30
0.0
 10
559.5290909470322
 20
502.8141286128829
 30
0.0
 10
559.5290909470322
 20
502.8141286128829
 30
0.0
 10
545.0820930601903
 20
509.41916221265
 30
0.0
 10
545.0820930601903
 20
509.41916221265
 30
0.0
 10
544.9206954109613
 20
509.4942533586654
 30
0.0
 10
544.7571108344718
 20
509.4839024125649
 30
0.0
 10
544.6474916232682
 20
509.3872646342352
 30
0.0
 10
544.5355881586256
 20
509.2893044432803
 30
0.0
 10
544.4752763568248
 20
509.1068447639691
 30
0.0
 10
544.4835145593315
 20
508.9011740094374
 30
0.0
 10
544.4835145593315
 20
508.9011740094374
 30
0.0
 10
544.5767464080272
 20
506.4747173837958
 30
0.0
 10
544.5767464080272
 20
506.4747173837958
 30
0.0
 10
544.5849846105338
 20
506.2690466292633
 30
0.0
 10
544.6599835515362
 20
506.0228758921393
 30
0.0
 10
544.7829095416636
 20
505.8196085033451
 30
0.0
 10
544.9035147168415
 20
505.6150476945986
 30
0.0
 10
545.0743677560913
 20
505.4546836541394
 30
0.0
 10
545.235728843817
 20
505.3796215007987
 30
0.0
 10
545.235728843817
 20
505.3796215007987
 30
0.0
 10
559.6851763513923
 20
498.7726453919167
 30
0.0
 10
559.6851763513923
 20
498.7726453919167
 30
0.0
 10
559.8441609413931
 20
498.6994677623442
 30
0.0
 10
560.0077455178834
 20
498.7098187084411
 30
0.0
 10
560.1197412268102
 20
498.8045719630027
 30
0.0
 10
560.2292681937297
 20
498.9044166777275
 30
0.0
 10
560.2895799955295
 20
499.0868763570388
 30
0.0
 10
560.2812495487414
 20
499.2957540479637
 30
0.0
 10
560.2812495487414
 20
499.2957540479637
 30
0.0
 10
560.1881099443271
 20
501.7190037372111
 30
0.0
 10
560.1881099443271
 20
501.7190037372111
 30
0.0
 10
560.1822482395436
 20
501.9227899679763
 30
0.0
 10
560.1048728008191
 20
502.1708452288694
 30
0.0
 10
559.9818545664111
 20
502.3773195540552
 30
0.0
  0
HATCH
  5
16F
330
158
100
AcDbEntity
  8
1
 62
   139
440
 33554687
100
AcDbHatch
 10
0.0
 20
0.0
 30
0.0
210
0.0
220
0.0
230
1.0
  2
SOLID
 70
     1
 71
     1
 91
       11
 92
        1
 93
        1
 72
     4
 94
        3
 73
     0
 74
     0
 95
       29
 96
       25
 40
0.0
 40
0.0
 40
0.0
 40
0.0
 40
1.0
 40
1.0
 40
1.0
 40
2.0
 40
2.0
 40
2.0
 40
3.0
 40
3.0
 40
3.0
 40
4.0
 40
4.0
 40
4.0
 40
5.0
 40
5.0
 40
5.0
 40
6.0
 40
6.0
 40
6.0
 40
7.0
 40
7.0
 40
7.0
 40
8.0
 40
8.0
 40
8.0
 40
8.0
 10
558.7925737711575
 20
500.174456255826
 10
558.7925737711575
 20
500.174456255826
 10
558.6683016956413
 20
500.5872354644634
 10
558.6683016956413
 20
500.5872354644634
 10
558.6683016956413
 20
500.5872354644634
 10
558.098813575063
 20
500.8489986221211
 10
558.098813575063
 20
500.8489986221211
 10
558.098813575063
 20
500.8489986221211
 10
558.0024431733863
 20
500.5364491835917
 10
558.0024431733863
 20
500.5364491835917
 10
558.0024431733863
 20
500.5364491835917
 10
557.6987504199587
 20
500.6746172585044
 10
557.6987504199587
 20
500.6746172585044
 10
557.6987504199587
 20
500.6746172585044
 10
558.1852468535144
 20
502.2398541111697
 10
558.1852468535144
 20
502.2398541111697
 10
558.1852468535144
 20
502.2398541111697
 10
558.4700187551934
 20
502.1073835604783
 10
558.4700187551934
 20
502.1073835604783
 10
558.4700187551934
 20
502.1073835604783
 10
559.093945709641
 20
500.0349947609629
 10
559.093945709641
 20
500.0349947609629
 10
559.093945709641
 20
500.0349947609629
 10
558.7925737711575
 20
500.174456255826
 10
558.7925737711575
 20
500.174456255826
 97
        0
 97
        1
330
164
 92
        1
 93
        1
 72
     4
 94
        3
 73
     0
 74
     0
 95
       35
 96
       31
 40
0.0
 40
0.0
 40
0.0
 40
0.0
 40
1.0
 40
1.0
 40
1.0
 40
2.0
 40
2.0
 40
2.0
 40
3.0
 40
3.0
 40
3.0
 40
4.0
 40
4.0
 40
4.0
 40
5.0
 40
5.0
 40
5.0
 40
6.0
 40
6.0
 40
6.0
 40
7.0
 40
7.0
 40
7.0
 40
8.0
 40
8.0
 40
8.0
 40
9.0
 40
9.0
 40
9.0
 40
10.0
 40
10.0
 40
10.0
 40
10.0
 10
557.5445919484154
 20
500.7439678551937
 10
557.5445919484154
 20
500.7439678551937
 10
557.2361124333164
 20
500.885836790424
 10
557.2361124333164
 20
500.885836790424
 10
557.2361124333164
 20
500.885836790424
 10
556.55856735834
 20
502.3815833058161
 10
556.55856735834
 20
502.3815833058161
 10
556.55856735834
 20
502.3815833058161
 10
556.6049636302632
 20
501.174749268508
 10
556.6049636302632
 20
501.174749268508
 10
556.6049636302632
 20
501.174749268508
 10
556.2965178813865
 20
501.3166863909545
 10
556.2965178813865
 20
501.3166863909545
 10
556.2965178813865
 20
501.3166863909545
 10
556.2278920699409
 20
503.1323894605439
 10
556.2278920699409
 20
503.1323894605439
 10
556.2278920699409
 20
503.1323894605439
 10
556.5363743803199
 20
502.9904233454235
 10
556.5363743803199
 20
502.9904233454235
 10
556.5363743803199
 20
502.9904233454235
 10
557.2114141517858
 20
501.4997972828669
 10
557.2114141517858
 20
501.4997972828669
 10
557.2114141517858
 20
501.4997972828669
 10
557.165110124145
 20
502.7034243837833
 10
557.165110124145
 20
502.7034243837833
 10
557.165110124145
 20
502.7034243837833
 10
557.4734636287394
 20
502.5646941977266
 10
557.4734636287394
 20
502.5646941977266
 10
557.4734636287394
 20
502.5646941977266
 10
557.5445919484154
 20
500.7439678551937
 10
557.5445919484154
 20
500.7439678551937
 97
        0
 97
        1
330
165
 92
        1
 93
        1
 72
     4
 94
        3
 73
     0
 74
     0
 95
       17
 96
       13
 40
0.0
 40
0.0
 40
0.0
 40
0.0
 40
1.0
 40
1.0
 40
1.0
 40
2.0
 40
2.0
 40
2.0
 40
3.0
 40
3.0
 40
3.0
 40
4.0
 40
4.0
 40
4.0
 40
4.0
 10
556.0616884266146
 20
501.4219935887931
 10
556.0616884266146
 20
501.4219935887931
 10
555.7532061162373
 20
501.5639597039153
 10
555.7532061162373
 20
501.5639597039153
 10
555.7532061162373
 20
501.5639597039153
 10
555.6822066023451
 20
503.3814501173829
 10
555.6822066023451
 20
503.3814501173829
 10
555.6822066023451
 20
503.3814501173829
 10
555.9905601069403
 20
503.242719931327
 10
555.9905601069403
 20
503.242719931327
 10
555.9905601069403
 20
503.242719931327
 10
556.0616884266146
 20
501.4219935887931
 10
556.0616884266146
 20
501.4219935887931
 97
        0
 97
        1
330
166
 92
        1
 93
        1
 72
     4
 94
        3
 73
     0
 74
     0
 95
       29
 96
       25
 40
0.0
 40
0.0
 40
0.0
 40
0.0
 40
1.0
 40
1.0
 40
1.0
 40
2.0
 40
2.0
 40
2.0
 40
3.0
 40
3.0
 40
3.0
 40
4.0
 40
4.0
 40
4.0
 40
5.0
 40
5.0
 40
5.0
 40
6.0
 40
6.0
 40
6.0
 40
7.0
 40
7.0
 40
7.0
 40
8.0
 40
8.0
 40
8.0
 40
8.0
 10
555.4969900662363
 20
503.1456217845134
 10
555.4969900662363
 20
503.1456217845134
 10
555.1672132016638
 20
503.2950727677325
 10
555.1672132016638
 20
503.2950727677325
 10
555.1672132016638
 20
503.2950727677325
 10
555.2240813286589
 20
501.8061555891417
 10
555.2240813286589
 20
501.8061555891417
 10
555.2240813286589
 20
501.8061555891417
 10
554.915638375065
 20
501.9479955317001
 10
554.915638375065
 20
501.9479955317001
 10
554.915638375065
 20
501.9479955317001
 10
554.8588231355661
 20
503.4338319464596
 10
554.8588231355661
 20
503.4338319464596
 10
554.8588231355661
 20
503.4338319464596
 10
554.5265775289871
 20
503.5883743898421
 10
554.5265775289871
 20
503.5883743898421
 10
554.5265775289871
 20
503.5883743898421
 10
554.51485640604
 20
503.9151312881667
 10
554.51485640604
 20
503.9151312881667
 10
554.51485640604
 20
503.9151312881667
 10
555.4852351770677
 20
503.472310495621
 10
555.4852351770677
 20
503.472310495621
 10
555.4852351770677
 20
503.472310495621
 10
555.4969900662363
 20
503.1456217845134
 10
555.4969900662363
 20
503.1456217845134
 97
        0
 97
        1
330
167
 92
        1
 93
        1
 72
     4
 94
        3
 73
     0
 74
     0
 95
       35
 96
       31
 40
0.0
 40
0.0
 40
0.0
 40
0.0
 40
1.0
 40
1.0
 40
1.0
 40
2.0
 40
2.0
 40
2.0
 40
3.0
 40
3.0
 40
3.0
 40
4.0
 40
4.0
 40
4.0
 40
5.0
 40
5.0
 40
5.0
 40
6.0
 40
6.0
 40
6.0
 40
7.0
 40
7.0
 40
7.0
 40
8.0
 40
8.0
 40
8.0
 40
9.0
 40
9.0
 40
9.0
 40
10.0
 40
10.0
 40
10.0
 40
10.0
 10
554.3865107922101
 20
502.1902885968147
 10
554.3865107922101
 20
502.1902885968147
 10
554.0781207261106
 20
502.3290477755454
 10
554.0781207261106
 20
502.3290477755454
 10
554.0781207261106
 20
502.3290477755454
 10
553.4028992613639
 20
503.8259905309941
 10
553.4028992613639
 20
503.8259905309941
 10
553.4028992613639
 20
503.8259905309941
 10
553.4493877775666
 20
502.6159495572955
 10
553.4493877775666
 20
502.6159495572955
 10
553.4493877775666
 20
502.6159495572955
 10
553.1409420286909
 20
502.7578866797439
 10
553.1409420286909
 20
502.7578866797439
 10
553.1409420286909
 20
502.7578866797439
 10
553.0698137090166
 20
504.5786130222759
 10
553.0698137090166
 20
504.5786130222759
 10
553.0698137090166
 20
504.5786130222759
 10
553.3807062833411
 20
504.4348305706052
 10
553.3807062833411
 20
504.4348305706052
 10
553.3807062833411
 20
504.4348305706052
 10
554.0558382990902
 20
502.9409975716553
 10
554.0558382990902
 20
502.9409975716553
 10
554.0558382990902
 20
502.9409975716553
 10
554.009442027167
 20
504.1478316089624
 10
554.009442027167
 20
504.1478316089624
 10
554.009442027167
 20
504.1478316089624
 10
554.3178877760446
 20
504.005894486514
 10
554.3178877760446
 20
504.005894486514
 10
554.3178877760446
 20
504.005894486514
 10
554.3865107922101
 20
502.1902885968147
 10
554.3865107922101
 20
502.1902885968147
 97
        0
 97
        1
330
168
 92
        1
 93
        1
 72
     4
 94
        3
 73
     0
 74
     0
 95
       44
 96
       40
 40
0.0
 40
0.0
 40
0.0
 40
0.0
 40
1.0
 40
1.0
 40
1.0
 40
2.0
 40
2.0
 40
2.0
 40
3.0
 40
3.0
 40
3.0
 40
4.0
 40
4.0
 40
4.0
 40
5.0
 40
5.0
 40
5.0
 40
6.0
 40
6.0
 40
6.0
 40
7.0
 40
7.0
 40
7.0
 40
8.0
 40
8.0
 40
8.0
 40
9.0
 40
9.0
 40
9.0
 40
10.0
 40
10.0
 40
10.0
 40
11.0
 40
11.0
 40
11.0
 40
12.0
 40
12.0
 40
12.0
 40
13.0
 40
13.0
 40
13.0
 40
13.0
 10
551.2262376268436
 20
503.6320799894192
 10
551.2262376268436
 20
503.6320799894192
 10
551.0335447402349
 20
504.8771499207541
 10
551.0335447402349
 20
504.8771499207541
 10
551.0335447402349
 20
504.8771499207541
 10
550.7682047085872
 20
503.8459153539179
 10
550.7682047085872
 20
503.8459153539179
 10
550.7682047085872
 20
503.8459153539179
 10
550.587922769113
 20
503.92667503148
 10
550.587922769113
 20
503.92667503148
 10
550.587922769113
 20
503.92667503148
 10
550.2339610390609
 20
505.2436001797641
 10
550.2339610390609
 20
505.2436001797641
 10
550.2339610390609
 20
505.2436001797641
 10
550.1299820951398
 20
504.1373034595854
 10
550.1299820951398
 20
504.1373034595854
 10
550.1299820951398
 20
504.1373034595854
 10
549.8286658394354
 20
504.2735870107299
 10
549.8286658394354
 20
504.2735870107299
 10
549.8286658394354
 20
504.2735870107299
 10
549.9902087315931
 20
505.9845449936228
 10
549.9902087315931
 20
505.9845449936228
 10
549.9902087315931
 20
505.9845449936228
 10
550.2985622361893
 20
505.8458148075678
 10
550.2985622361893
 20
505.8458148075678
 10
550.2985622361893
 20
505.8458148075678
 10
550.6551187187506
 20
504.5206594499486
 10
550.6551187187506
 20
504.5206594499486
 10
550.6551187187506
 20
504.5206594499486
 10
550.9203136186187
 20
505.5581817170077
 10
550.9203136186187
 20
505.5581817170077
 10
550.9203136186187
 20
505.5581817170077
 10
551.2287036847173
 20
505.4194225382779
 10
551.2287036847173
 20
505.4194225382779
 10
551.2287036847173
 20
505.4194225382779
 10
551.5299303802703
 20
503.4939119145073
 10
551.5299303802703
 20
503.4939119145073
 10
551.5299303802703
 20
503.4939119145073
 10
551.2262376268436
 20
503.6320799894192
 10
551.2262376268436
 20
503.6320799894192
 97
        0
 97
        1
330
16A
 92
        1
 93
        1
 72
     4
 94
        3
 73
     0
 74
     0
 95
       29
 96
       25
 40
0.0
 40
0.0
 40
0.0
 40
0.0
 40
1.0
 40
1.0
 40
1.0
 40
2.0
 40
2.0
 40
2.0
 40
3.0
 40
3.0
 40
3.0
 40
4.0
 40
4.0
 40
4.0
 40
5.0
 40
5.0
 40
5.0
 40
6.0
 40
6.0
 40
6.0
 40
7.0
 40
7.0
 40
7.0
 40
8.0
 40
8.0
 40
8.0
 40
8.0
 10
549.4063883905128
 20
504.4653364501073
 10
549.4063883905128
 20
504.4653364501073
 10
549.2820240707124
 20
504.8813225951362
 10
549.2820240707124
 20
504.8813225951362
 10
549.2820240707124
 20
504.8813225951362
 10
548.7126647559198
 20
505.1398498237303
 10
548.7126647559198
 20
505.1398498237303
 10
548.7126647559198
 20
505.1398498237303
 10
548.6162943542431
 20
504.8273003852009
 10
548.6162943542431
 20
504.8273003852009
 10
548.6162943542431
 20
504.8273003852009
 10
548.3150146600437
 20
504.9635549436715
 10
548.3150146600437
 20
504.9635549436715
 10
548.3150146600437
 20
504.9635549436715
 10
548.7990980343711
 20
506.5307053127781
 10
548.7990980343711
 20
506.5307053127781
 10
548.7990980343711
 20
506.5307053127781
 10
549.0837776917678
 20
506.4014416984782
 10
549.0837776917678
 20
506.4014416984782
 10
549.0837776917678
 20
506.4014416984782
 10
549.7076680847121
 20
504.3290818916375
 10
549.7076680847121
 20
504.3290818916375
 10
549.7076680847121
 20
504.3290818916375
 10
549.4063883905128
 20
504.4653364501073
 10
549.4063883905128
 20
504.4653364501073
 97
        0
 97
        1
330
16B
 92
        1
 93
        1
 72
     4
 94
        3
 73
     0
 74
     0
 95
       32
 96
       28
 40
0.0
 40
0.0
 40
0.0
 40
0.0
 40
1.0
 40
1.0
 40
1.0
 40
2.0
 40
2.0
 40
2.0
 40
3.0
 40
3.0
 40
3.0
 40
4.0
 40
4.0
 40
4.0
 40
5.0
 40
5.0
 40
5.0
 40
6.0
 40
6.0
 40
6.0
 40
7.0
 40
7.0
 40
7.0
 40
8.0
 40
8.0
 40
8.0
 40
9.0
 40
9.0
 40
9.0
 40
9.0
 10
547.8546609268432
 20
505.1760968882162
 10
547.8546609268432
 20
505.1760968882162
 10
547.4504565067181
 20
506.041238774258
 10
547.4504565067181
 20
506.041238774258
 10
547.4504565067181
 20
506.041238774258
 10
547.4798206213163
 20
505.3458034275772
 10
547.4798206213163
 20
505.3458034275772
 10
547.4798206213163
 20
505.3458034275772
 10
547.1689646084923
 20
505.4895568865759
 10
547.1689646084923
 20
505.4895568865759
 10
547.1689646084923
 20
505.4895568865759
 10
547.1002465527654
 20
507.3084668925567
 10
547.1002465527654
 20
507.3084668925567
 10
547.1002465527654
 20
507.3084668925567
 10
547.627050525396
 20
507.0649775873789
 10
547.627050525396
 20
507.0649775873789
 10
547.8238931448886
 20
506.977353138207
 10
547.9998175558375
 20
506.7226575052618
 10
548.0473228324354
 20
506.4547956121314
 10
548.105326870469
 20
506.147365454547
 10
547.9710011131174
 20
505.9333825151043
 10
547.7496285588549
 20
505.9782578533631
 10
547.7496285588549
 20
505.9782578533631
 10
548.1963011587622
 20
505.0203722372025
 10
548.1963011587622
 20
505.0203722372025
 10
548.1963011587622
 20
505.0203722372025
 10
547.8546609268432
 20
505.1760968882162
 10
547.8546609268432
 20
505.1760968882162
 97
        0
 97
        1
330
16C
 92
        1
 93
        1
 72
     4
 94
        3
 73
     0
 74
     0
 95
       29
 96
       25
 40
0.0
 40
0.0
 40
0.0
 40
0.0
 40
1.0
 40
1.0
 40
1.0
 40
2.0
 40
2.0
 40
2.0
 40
3.0
 40
3.0
 40
3.0
 40
4.0
 40
4.0
 40
4.0
 40
5.0
 40
5.0
 40
5.0
 40
6.0
 40
6.0
 40
6.0
 40
7.0
 40
7.0
 40
7.0
 40
8.0
 40
8.0
 40
8.0
 40
8.0
 10
546.9151222609371
 20
507.0694316232957
 10
546.9151222609371
 20
507.0694316232957
 10
546.5853453963664
 20
507.2188826065157
 10
546.5853453963664
 20
507.2188826065157
 10
546.5853453963664
 20
507.2188826065157
 10
546.6422500848657
 20
505.7299364352529
 10
546.6422500848657
 20
505.7299364352529
 10
546.6422500848657
 20
505.7299364352529
 10
546.3313575105384
 20
505.8737188869226
 10
546.3313575105384
 20
505.8737188869226
 10
546.3313575105384
 20
505.8737188869226
 10
546.2745788325419
 20
507.3595263090128
 10
546.2745788325419
 20
507.3595263090128
 10
546.2745788325419
 20
507.3595263090128
 10
545.944746285193
 20
507.5121552359523
 10
545.944746285193
 20
507.5121552359523
 10
545.944746285193
 20
507.5121552359523
 10
545.9306148982987
 20
507.8407284708273
 10
545.9306148982987
 20
507.8407284708273
 10
545.9306148982987
 20
507.8407284708273
 10
546.9033673717676
 20
507.3961203344042
 10
546.9033673717676
 20
507.3961203344042
 10
546.9033673717676
 20
507.3961203344042
 10
546.9151222609371
 20
507.0694316232957
 10
546.9151222609371
 20
507.0694316232957
 97
        0
 97
        1
330
16D
 92
        1
 93
        2
 72
     4
 94
        3
 73
     0
 74
     0
 95
       53
 96
       49
 40
0.0
 40
0.0
 40
0.0
 40
0.0
 40
1.0
 40
1.0
 40
1.0
 40
2.0
 40
2.0
 40
2.0
 40
3.0
 40
3.0
 40
3.0
 40
4.0
 40
4.0
 40
4.0
 40
5.0
 40
5.0
 40
5.0
 40
6.0
 40
6.0
 40
6.0
 40
7.0
 40
7.0
 40
7.0
 40
8.0
 40
8.0
 40
8.0
 40
9.0
 40
9.0
 40
9.0
 40
10.0
 40
10.0
 40
10.0
 40
11.0
 40
11.0
 40
11.0
 40
12.0
 40
12.0
 40
12.0
 40
13.0
 40
13.0
 40
13.0
 40
14.0
 40
14.0
 40
14.0
 40
15.0
 40
15.0
 40
15.0
 40
16.0
 40
16.0
 40
16.0
 40
16.0
 10
552.9473189433137
 20
503.3844387047611
 10
552.9149513548581
 20
503.2887426023717
 10
552.8658020363191
 20
503.206354137048
 10
552.8018256207978
 20
503.1512972944238
 10
552.737941449558
 20
503.0930335154107
 10
552.6591936198328
 20
503.0621303517655
 10
552.5728578708094
 20
503.0528182615007
 10
552.4863961112823
 20
503.0466449204068
 10
552.39218106517
 20
503.0653275744279
 10
552.2972674215907
 20
503.1095395470292
 10
552.2024122560706
 20
503.1504763960165
 10
552.1067662488048
 20
503.2201494999736
 10
552.0176461768087
 20
503.3063942349254
 10
551.9261524023686
 20
503.3944263137518
 10
551.8434103385825
 20
503.5036275598031
 10
551.772165460301
 20
503.6192857037367
 10
551.7032441922456
 20
503.7361400877362
 10
551.6432591234106
 20
503.8677497661719
 10
551.6043897107665
 20
503.9980940895129
 10
551.5631410051146
 20
504.1304201165121
 10
551.540647783926
 20
504.2603135410299
 10
551.5347911610442
 20
504.3831870286994
 10
551.5312187916061
 20
504.5073829289949
 10
551.5442464589705
 20
504.6245878851141
 10
551.5766140474251
 20
504.7202839875044
 10
551.6088893915984
 20
504.819187026289
 10
551.6580021486342
 20
504.9016044842846
 10
551.7219785641555
 20
504.9566613269062
 10
551.7859549796766
 20
505.0117181695286
 10
551.8621975058922
 20
505.0477417860074
 10
551.9510385584235
 20
505.0519334234395
 10
552.0374080736692
 20
505.0613137009277
 10
552.1293023048383
 20
505.0413376269516
 10
552.2265367633626
 20
504.9984190743043
 10
552.3190711139359
 20
504.9561888053631
 10
552.4170379361494
 20
504.8878091213555
 10
552.5061580081455
 20
504.8015643864073
 10
552.5977440268661
 20
504.7103253711894
 10
552.6803938463699
 20
504.6043310615323
 10
552.7493179097055
 20
504.4873794976447
 10
552.8205599927059
 20
504.3718185335965
 10
552.8782242465967
 20
504.2389154352104
 10
552.9195067184692
 20
504.1066575954273
 10
552.9607919856216
 20
503.9743025757543
 10
552.9832486453087
 20
503.8444381439094
 10
552.9891975124719
 20
503.7183577198493
 10
552.9926776376287
 20
503.5973687559462
 10
552.9795970827672
 20
503.4832445636547
 10
552.9473189433137
 20
503.3844387047611
 97
        0
 72
     1
 10
552.9473189433137
 20
503.3844387047611
 11
552.9473189433137
 21
503.3844387047611
 97
        0
 92
        1
 93
        2
 72
     4
 94
        3
 73
     0
 74
     0
 95
       41
 96
       37
 40
0.0
 40
0.0
 40
0.0
 40
0.0
 40
1.0
 40
1.0
 40
1.0
 40
2.0
 40
2.0
 40
2.0
 40
3.0
 40
3.0
 40
3.0
 40
4.0
 40
4.0
 40
4.0
 40
5.0
 40
5.0
 40
5.0
 40
6.0
 40
6.0
 40
6.0
 40
7.0
 40
7.0
 40
7.0
 40
8.0
 40
8.0
 40
8.0
 40
9.0
 40
9.0
 40
9.0
 40
10.0
 40
10.0
 40
10.0
 40
11.0
 40
11.0
 40
11.0
 40
12.0
 40
12.0
 40
12.0
 40
12.0
 10
559.9818545664111
 20
502.3773195540552
 10
559.859020820566
 20
502.5773800064562
 10
559.6903963519817
 20
502.7422444032618
 10
559.5290909470322
 20
502.8141286128829
 10
559.5290909470322
 20
502.8141286128829
 10
545.0820930601903
 20
509.41916221265
 10
545.0820930601903
 20
509.41916221265
 10
544.9206954109613
 20
509.4942533586654
 10
544.7571108344718
 20
509.4839024125649
 10
544.6474916232682
 20
509.3872646342352
 10
544.5355881586256
 20
509.2893044432803
 10
544.4752763568248
 20
509.1068447639691
 10
544.4835145593315
 20
508.9011740094374
 10
544.4835145593315
 20
508.9011740094374
 10
544.5767464080272
 20
506.4747173837958
 10
544.5767464080272
 20
506.4747173837958
 10
544.5849846105338
 20
506.2690466292633
 10
544.6599835515362
 20
506.0228758921393
 10
544.7829095416636
 20
505.8196085033451
 10
544.9035147168415
 20
505.6150476945986
 10
545.0743677560913
 20
505.4546836541394
 10
545.235728843817
 20
505.3796215007987
 10
545.235728843817
 20
505.3796215007987
 10
559.6851763513923
 20
498.7726453919167
 10
559.6851763513923
 20
498.7726453919167
 10
559.8441609413931
 20
498.6994677623442
 10
560.0077455178834
 20
498.7098187084411
 10
560.1197412268102
 20
498.8045719630027
 10
560.2292681937297
 20
498.9044166777275
 10
560.2895799955295
 20
499.0868763570388
 10
560.2812495487414
 20
499.2957540479637
 10
560.2812495487414
 20
499.2957540479637
 10
560.1881099443271
 20
501.7190037372111
 10
560.1881099443271
 20
501.7190037372111
 10
560.1822482395436
 20
501.9227899679763
 10
560.1048728008191
 20
502.1708452288694
 10
559.9818545664111
 20
502.3773195540552
 97
        0
 72
     1
 10
559.9818545664111
 20
502.3773195540552
 11
559.9818545664111
 21
502.3773195540552
 97
        0
 75
     2
 76
     1
 98
        1
 10
0.0
 20
0.0
450
        0
451
        0
460
0.0
461
0.0
452
        0
462
0.0
453
        0
470

  0
ENDBLK
  5
15B
330
158
100
AcDbEntity
  8
0
100
AcDbBlockEnd
  0
BLOCK
  5
173
330
171
100
AcDbEntity
  8
0
100
AcDbBlockBegin
  2
Block_1
 70
     0
 10
0.0
 20
0.0
 30
0.0
  3
Block_1
  1

  0
SPLINE
  5
175
330
171
100
AcDbEntity
  8
1
 62
   251
370
    25
100
AcDbSpline
210
0.0
220
0.0
230
1.0
 70
     9
 71
     3
 72
    29
 73
    25
 74
     0
 42
0.0000000001
 43
0.0000000001
 40
0.0
 40
0.0
 40
0.0
 40
0.0
 40
1.0
 40
1.0
 40
1.0
 40
2.0
 40
2.0
 40
2.0
 40
3.0
 40
3.0
 40
3.0
 40
4.0
 40
4.0
 40
4.0
 40
5.0
 40
5.0
 40
5.0
 40
6.0
 40
6.0
 40
6.0
 40
7.0
 40
7.0
 40
7.0
 40
8.0
 40
8.0
 40
8.0
 40
8.0
 10
1047.98412026545
 20
115.5443044843596
 30
0.0
 10
1047.98412026545
 20
113.2337980945158
 30
0.0
 10
1046.094890993259
 20
111.3445711581516
 30
0.0
 10
1043.782754190841
 20
111.3445711581516
 30
0.0
 10
1043.782754190841
 20
111.3445711581516
 30
0.0
 10
1019.090543611461
 20
111.3445711581516
 30
0.0
 10
1019.090543611461
 20
111.3445711581516
 30
0.0
 10
1016.78330271842
 20
111.3445711581516
 30
0.0
 10
1014.892441476429
 20
113.2337980945158
 30
0.0
 10
1014.892441476429
 20
115.5443044843596
 30
0.0
 10
1014.892441476429
 20
115.5443044843596
 30
0.0
 10
1014.892441476429
 20
140.2397778354061
 30
0.0
 10
1014.892441476429
 20
140.2397778354061
 30
0.0
 10
1014.892441476429
 20
142.5470218428945
 30
0.0
 10
1016.78330271842
 20
144.4378799704373
 30
0.0
 10
1019.090543611461
 20
144.4378799704373
 30
0.0
 10
1019.090543611461
 20
144.4378799704373
 30
0.0
 10
1043.782754190841
 20
144.4378799704373
 30
0.0
 10
1043.782754190841
 20
144.4378799704373
 30
0.0
 10
1046.094890993259
 20
144.4378799704373
 30
0.0
 10
1047.98412026545
 20
142.5470218428945
 30
0.0
 10
1047.98412026545
 20
140.2397778354061
 30
0.0
 10
1047.98412026545
 20
140.2397778354061
 30
0.0
 10
1047.98412026545
 20
115.5443044843596
 30
0.0
 10
1047.98412026545
 20
115.5443044843596
 30
0.0
  0
LWPOLYLINE
  5
176
330
171
100
AcDbEntity
  8
1
100
AcDbPolyline
 90
        4
 70
     1
 43
0.0
 10
1014.218232399649
 20
110.6706871516999
 10
1048.79418459836
 20
110.6706871516999
 10
1048.79418459836
 20
145.1111111111113
 10
1014.218232399649
 20
145.1111111111113
  0
ENDBLK
  5
174
330
171
100
AcDbEntity
  8
0
100
AcDbBlockEnd
  0
BLOCK
  5
179
330
177
100
AcDbEntity
  8
0
100
AcDbBlockBegin
  2
Block_2
 70
     0
 10
0.0
 20
0.0
 30
0.0
  3
Block_2
  1

  0
LINE
  5
17B
330
177
100
AcDbEntity
  8
1
 62
   253
370
    30
100
AcDbLine
 10
1021.203868447899
 20
122.1624601416042
 30
0.0
 11
1041.65359030639
 21
122.1624601416042
 31
0.0
  0
LINE
  5
17C
330
177
100
AcDbEntity
  8
1
 62
   253
370
    20
100
AcDbLine
 10
1020.960294281889
 20
124.909668059201
 30
0.0
 11
1020.960294281889
 21
119.4186283573381
 31
0.0
  0
LINE
  5
17D
330
177
100
AcDbEntity
  8
1
 62
   253
370
    20
100
AcDbLine
 10
1041.902952129539
 20
124.909668059201
 30
0.0
 11
1041.902952129539
 21
119.4186283573381
 31
0.0
  0
ENDBLK
  5
17A
330
177
100
AcDbEntity
  8
0
100
AcDbBlockEnd
  0
ENDSEC
  0
SECTION
  2
ENTITIES
  0
LINE
  5
79
330
70
100
AcDbEntity
  8
1
 62
     7
370
    35
100
AcDbLine
 10
840.6271100497907
 20
197.541666122408
 30
0.0
 11
840.6271100497907
 21
228.8865615918094
 31
0.0
  0
LINE
  5
7A
330
70
100
AcDbEntity
  8
1
 62
     7
370
    35
100
AcDbLine
 10
843.7442433423312
 20
234.3010568641112
 30
0.0
 11
859.5680886763075
 21
242.4700246458815
 31
0.0
  0
LINE
  5
7B
330
70
100
AcDbEntity
  8
1
 62
     7
370
    35
100
AcDbLine
 10
469.455233404461
 20
521.087454376413
 30
0.0
 11
469.455233404461
 21
255.939494776856
 31
0.0
  0
LINE
  5
7C
330
70
100
AcDbEntity
  8
1
 62
     7
370
    35
100
AcDbLine
 10
467.5851739170375
 20
572.8735531719975
 30
0.0
 11
467.5851739170375
 21
522.2732670663272
 31
0.0
  0
LINE
  5
7D
330
70
100
AcDbEntity
  8
1
 62
     7
370
    35
100
AcDbLine
 10
466.2813852468189
 20
584.5115932925991
 30
0.0
 11
466.2813852468189
 21
573.8585689188039
 31
0.0
  0
LINE
  5
7E
330
70
100
AcDbEntity
  8
1
 62
     7
370
    35
100
AcDbLine
 10
865.9561466699051
 20
557.9136802146658
 30
0.0
 11
865.9561466699051
 21
568.5667045884611
 31
0.0
  0
LINE
  5
7F
330
70
100
AcDbEntity
  8
1
 62
     7
370
    35
100
AcDbLine
 10
511.5708725346057
 20
551.598998688114
 30
0.0
 11
511.5708725346057
 21
551.5461878608102
 31
0.0
  0
LINE
  5
80
330
70
100
AcDbEntity
  8
1
 62
     7
370
    35
100
AcDbLine
 10
511.3505783899699
 20
551.4791382145877
 30
0.0
 11
511.640000630784
 21
551.5675657243137
 31
0.0
  0
LINE
  5
81
330
70
100
AcDbEntity
  8
1
 62
     7
370
    35
100
AcDbLine
 10
513.3500649675843
 20
550.6992041785779
 30
0.0
 11
513.164343970242
 21
550.6424605791435
 31
0.0
  0
LINE
  5
82
330
70
100
AcDbEntity
  8
1
 62
     7
370
    35
100
AcDbLine
 10
519.8061308973492
 20
526.1036755355599
 30
0.0
 11
519.6549830473022
 21
526.0574951551798
 31
0.0
  0
LINE
  5
83
330
70
100
AcDbEntity
  8
1
 62
     7
370
    35
100
AcDbLine
 10
512.9440498256062
 20
529.1532012569478
 30
0.0
 11
512.9440498256062
 21
534.9235894195117
 31
0.0
  0
LINE
  5
84
330
70
100
AcDbEntity
  8
1
 62
     7
370
    35
100
AcDbLine
 10
512.9440498256062
 20
529.1532012569478
 30
0.0
 11
519.6549830473022
 21
526.0574951551798
 31
0.0
  0
LINE
  5
85
330
70
100
AcDbEntity
  8
1
 62
     7
370
    35
100
AcDbLine
 10
519.6549830473022
 20
531.8278833177437
 30
0.0
 11
519.6549830473022
 21
526.0574951551798
 31
0.0
  0
LINE
  5
86
330
70
100
AcDbEntity
  8
1
 62
     7
370
    35
100
AcDbLine
 10
513.3154913413854
 20
535.0370766183778
 30
0.0
 11
512.9440498256062
 21
534.9235894195117
 31
0.0
  0
LINE
  5
87
330
70
100
AcDbEntity
  8
1
 62
     7
370
    35
100
AcDbLine
 10
519.6549830473022
 20
531.8278833177437
 30
0.0
 11
512.9440498256062
 21
534.9235894195117
 31
0.0
  0
LINE
  5
88
330
70
100
AcDbEntity
  8
1
 62
     7
370
    35
100
AcDbLine
 10
520.0264245630797
 20
531.9413705166097
 30
0.0
 11
519.6549830473022
 21
531.8278833177437
 31
0.0
  0
LINE
  5
89
330
70
100
AcDbEntity
  8
1
 62
     7
370
    35
100
AcDbLine
 10
519.8061304184439
 20
525.9877722583451
 30
0.0
 11
519.8061304184439
 21
531.758160420909
 31
0.0
  0
LINE
  5
8A
330
70
100
AcDbEntity
  8
1
 62
     7
370
    35
100
AcDbLine
 10
519.8061304184439
 20
525.9877722583451
 30
0.0
 11
526.5170636401389
 21
522.892066156578
 31
0.0
  0
LINE
  5
8B
330
70
100
AcDbEntity
  8
1
 62
     7
370
    35
100
AcDbLine
 10
520.1775714553159
 20
531.871647619776
 30
0.0
 11
519.8061304184439
 21
531.758160420909
 31
0.0
  0
LINE
  5
8C
330
70
100
AcDbEntity
  8
1
 62
     7
370
    35
100
AcDbLine
 10
526.5170636401389
 20
528.662454319141
 30
0.0
 11
519.8061304184439
 21
531.758160420909
 31
0.0
  0
LINE
  5
8D
330
70
100
AcDbEntity
  8
1
 62
     7
370
    35
100
AcDbLine
 10
526.5170636401389
 20
528.662454319141
 30
0.0
 11
526.5170636401389
 21
522.892066156578
 31
0.0
  0
LINE
  5
8E
330
70
100
AcDbEntity
  8
1
 62
     7
370
    35
100
AcDbLine
 10
526.6682110112806
 20
522.9382465369581
 30
0.0
 11
526.5170636401389
 21
522.892066156578
 31
0.0
  0
LINE
  5
8F
330
70
100
AcDbEntity
  8
1
 62
     7
370
    35
100
AcDbLine
 10
526.8885051559172
 20
528.775941518008
 30
0.0
 11
526.5170636401389
 21
528.662454319141
 31
0.0
  0
LINE
  5
90
330
70
100
AcDbEntity
  8
1
 62
     7
370
    35
100
AcDbLine
 10
526.6682105323752
 20
522.8223427808379
 30
0.0
 11
526.6682105323752
 21
528.5927314223072
 31
0.0
  0
LINE
  5
91
330
70
100
AcDbEntity
  8
1
 62
     7
370
    35
100
AcDbLine
 10
526.6682105323752
 20
522.8223427808379
 30
0.0
 11
533.3791442329766
 21
519.7266371579753
 31
0.0
  0
LINE
  5
92
330
70
100
AcDbEntity
  8
1
 62
     7
370
    35
100
AcDbLine
 10
533.3791442329766
 20
525.4970253205392
 30
0.0
 11
533.3791442329766
 21
519.7266371579753
 31
0.0
  0
LINE
  5
93
330
70
100
AcDbEntity
  8
1
 62
     7
370
    35
100
AcDbLine
 10
533.5302916041182
 20
519.7728175383563
 30
0.0
 11
533.3791442329766
 21
519.7266371579753
 31
0.0
  0
LINE
  5
94
330
70
100
AcDbEntity
  8
1
 62
     7
370
    35
100
AcDbLine
 10
527.0396520481535
 20
528.7062186211733
 30
0.0
 11
526.6682105323752
 21
528.5927314223072
 31
0.0
  0
LINE
  5
95
330
70
100
AcDbEntity
  8
1
 62
     7
370
    35
100
AcDbLine
 10
533.3791442329766
 20
525.4970253205392
 30
0.0
 11
526.6682105323752
 21
528.5927314223072
 31
0.0
  0
LINE
  5
96
330
70
100
AcDbEntity
  8
1
 62
     7
370
    35
100
AcDbLine
 10
533.7505852698487
 20
525.6105125194062
 30
0.0
 11
533.3791442329766
 21
525.4970253205392
 31
0.0
  0
LINE
  5
97
330
70
100
AcDbEntity
  8
1
 62
     7
370
    35
100
AcDbLine
 10
578.9651238437682
 20
498.8140509597797
 30
0.0
 11
578.8139759937203
 21
498.7678705793996
 31
0.0
  0
LINE
  5
98
330
70
100
AcDbEntity
  8
1
 62
     7
370
    35
100
AcDbLine
 10
533.5302911252129
 20
519.6569137822361
 30
0.0
 11
533.5302911252129
 21
525.4273024237045
 31
0.0
  0
LINE
  5
99
330
70
100
AcDbEntity
  8
1
 62
     7
370
    35
100
AcDbLine
 10
533.5302911252129
 20
519.6569137822361
 30
0.0
 11
578.8139759937203
 21
498.7678705793996
 31
0.0
  0
LINE
  5
9A
330
70
100
AcDbEntity
  8
1
 62
     7
370
    35
100
AcDbLine
 10
578.8139759937203
 20
504.5382592208689
 30
0.0
 11
578.8139759937203
 21
498.7678705793996
 31
0.0
  0
LINE
  5
9B
330
70
100
AcDbEntity
  8
1
 62
     7
370
    35
100
AcDbLine
 10
533.9017326409912
 20
525.5407891436662
 30
0.0
 11
533.5302911252129
 21
525.4273024237045
 31
0.0
  0
LINE
  5
9C
330
70
100
AcDbEntity
  8
1
 62
     7
370
    35
100
AcDbLine
 10
578.8139759937203
 20
504.5382592208689
 30
0.0
 11
533.5302911252129
 21
525.4273024237045
 31
0.0
  0
LINE
  5
9D
330
70
100
AcDbEntity
  8
1
 62
     7
370
    35
100
AcDbLine
 10
579.1854175094986
 20
504.6517459408296
 30
0.0
 11
578.8139759937203
 21
504.5382592208689
 31
0.0
  0
LINE
  5
9E
330
70
100
AcDbEntity
  8
1
 62
     7
370
    35
100
AcDbLine
 10
585.8272039577005
 20
495.6486219611779
 30
0.0
 11
585.6760565865579
 21
495.6024415807978
 31
0.0
  0
LINE
  5
9F
330
70
100
AcDbEntity
  8
1
 62
     7
370
    35
100
AcDbLine
 10
579.3365644017349
 20
504.5820230439958
 30
0.0
 11
578.9651233648619
 21
504.4685358451288
 31
0.0
  0
LINE
  5
A0
330
70
100
AcDbEntity
  8
1
 62
     7
370
    35
100
AcDbLine
 10
586.0474976234299
 20
501.4863169422278
 30
0.0
 11
585.6760565865579
 21
501.3728297433608
 31
0.0
  0
LINE
  5
A1
330
70
100
AcDbEntity
  8
1
 62
     7
370
    35
100
AcDbLine
 10
578.9651233648619
 20
498.6981476825649
 30
0.0
 11
578.9651233648619
 21
504.4685358451288
 31
0.0
  0
LINE
  5
A2
330
70
100
AcDbEntity
  8
1
 62
     7
370
    35
100
AcDbLine
 10
578.9651233648619
 20
498.6981476825649
 30
0.0
 11
585.6760565865579
 21
495.6024415807978
 31
0.0
  0
LINE
  5
A3
330
70
100
AcDbEntity
  8
1
 62
     7
370
    35
100
AcDbLine
 10
585.6760565865579
 20
501.3728297433608
 30
0.0
 11
585.6760565865579
 21
495.6024415807978
 31
0.0
  0
LINE
  5
A4
330
70
100
AcDbEntity
  8
1
 62
     7
370
    35
100
AcDbLine
 10
585.6760565865579
 20
501.3728297433608
 30
0.0
 11
578.9651233648619
 21
504.4685358451288
 31
0.0
  0
LINE
  5
A5
330
70
100
AcDbEntity
  8
1
 62
     7
370
    35
100
AcDbLine
 10
521.9712297084297
 20
507.3452513830861
 30
0.0
 11
521.9712297084297
 21
511.9575952344966
 31
0.0
  0
LINE
  5
A6
330
70
100
AcDbEntity
  8
1
 62
     7
370
    35
100
AcDbLine
 10
601.8874490289481
 20
470.4804655090856
 30
0.0
 11
521.9712297084297
 21
507.3452513830861
 31
0.0
  0
LINE
  5
A7
330
70
100
AcDbEntity
  8
1
 62
     7
370
    35
100
AcDbLine
 10
511.1994310188274
 20
504.0541259682932
 30
0.0
 11
521.9712297084297
 21
507.3452513830861
 31
0.0
  0
LINE
  5
A8
330
70
100
AcDbEntity
  8
1
 62
     7
370
    35
100
AcDbLine
 10
585.8272034787942
 20
495.5327186839631
 30
0.0
 11
585.8272034787942
 21
501.303106846527
 31
0.0
  0
LINE
  5
A9
330
70
100
AcDbEntity
  8
1
 62
     7
370
    35
100
AcDbLine
 10
585.8272034787942
 20
495.5327186839631
 30
0.0
 11
592.5381367004892
 21
492.4370125821951
 31
0.0
  0
LINE
  5
AA
330
70
100
AcDbEntity
  8
1
 62
     7
370
    35
100
AcDbLine
 10
586.1986449945725
 20
501.4165940453931
 30
0.0
 11
585.8272034787942
 21
501.303106846527
 31
0.0
  0
LINE
  5
AB
330
70
100
AcDbEntity
  8
1
 62
     7
370
    35
100
AcDbLine
 10
592.5381367004892
 20
498.207400744759
 30
0.0
 11
585.8272034787942
 21
501.303106846527
 31
0.0
  0
LINE
  5
AC
330
70
100
AcDbEntity
  8
1
 62
     7
370
    35
100
AcDbLine
 10
592.5381367004892
 20
498.207400744759
 30
0.0
 11
592.5381367004892
 21
492.4370125821951
 31
0.0
  0
LINE
  5
AD
330
70
100
AcDbEntity
  8
1
 62
     7
370
    35
100
AcDbLine
 10
592.6892845505371
 20
492.4831929625761
 30
0.0
 11
592.5381367004892
 21
492.4370125821951
 31
0.0
  0
LINE
  5
AE
330
70
100
AcDbEntity
  8
1
 62
     7
370
    35
100
AcDbLine
 10
592.9095782162667
 20
498.3208879436261
 30
0.0
 11
592.5381367004892
 21
498.207400744759
 31
0.0
  0
LINE
  5
AF
330
70
100
AcDbEntity
  8
1
 62
     7
370
    35
100
AcDbLine
 10
592.6892840716318
 20
492.3672892064559
 30
0.0
 11
592.6892840716318
 21
498.1376778479252
 31
0.0
  0
LINE
  5
B0
330
70
100
AcDbEntity
  8
1
 62
     7
370
    35
100
AcDbLine
 10
592.6892840716318
 20
492.3672892064559
 30
0.0
 11
599.4002172933269
 21
489.2715835835933
 31
0.0
  0
LINE
  5
B1
330
70
100
AcDbEntity
  8
1
 62
     7
370
    35
100
AcDbLine
 10
599.4002172933269
 20
495.0419717461572
 30
0.0
 11
599.4002172933269
 21
489.2715835835933
 31
0.0
  0
LINE
  5
B2
330
70
100
AcDbEntity
  8
1
 62
     7
370
    35
100
AcDbLine
 10
599.7716588091043
 20
489.3850703035541
 30
0.0
 11
599.4002172933269
 21
489.2715835835933
 31
0.0
  0
LINE
  5
B3
330
70
100
AcDbEntity
  8
1
 62
     7
370
    35
100
AcDbLine
 10
599.9228061802469
 20
489.4312506839351
 30
0.0
 11
599.7716588091043
 21
489.3850703035541
 31
0.0
  0
LINE
  5
B4
330
70
100
AcDbEntity
  8
1
 62
     7
370
    35
100
AcDbLine
 10
593.0607251085039
 20
498.2511650467913
 30
0.0
 11
592.6892840716318
 21
498.1376778479252
 31
0.0
  0
LINE
  5
B5
330
70
100
AcDbEntity
  8
1
 62
     7
370
    35
100
AcDbLine
 10
599.4002172933269
 20
495.0419717461572
 30
0.0
 11
592.6892840716318
 21
498.1376778479252
 31
0.0
  0
LINE
  5
B6
330
70
100
AcDbEntity
  8
1
 62
     7
370
    35
100
AcDbLine
 10
599.7716588091043
 20
495.1554589450243
 30
0.0
 11
599.4002172933269
 21
495.0419717461572
 31
0.0
  0
LINE
  5
B7
330
70
100
AcDbEntity
  8
1
 62
     7
370
    35
100
AcDbLine
 10
513.164343970242
 20
535.7726137181644
 30
0.0
 11
513.3500649675843
 21
535.8293573175969
 31
0.0
  0
LINE
  5
B8
330
70
100
AcDbEntity
  8
1
 62
     7
370
    35
100
AcDbLine
 10
513.3500649675843
 20
535.8293573175969
 30
0.0
 11
513.3500649675843
 21
550.6992041785779
 31
0.0
  0
LINE
  5
B9
330
70
100
AcDbEntity
  8
1
 62
     7
370
    35
100
AcDbLine
 10
599.9214532721544
 20
495.8945887940199
 30
0.0
 11
513.3500649675843
 21
535.8293573175969
 31
0.0
  0
LINE
  5
BA
330
70
100
AcDbEntity
  8
1
 62
     7
370
    35
100
AcDbLine
 10
513.3500649675843
 20
550.6992041785779
 30
0.0
 11
513.3500649675843
 21
550.778727397972
 31
0.0
  0
LINE
  5
BB
330
70
100
AcDbEntity
  8
1
 62
     7
370
    35
100
AcDbLine
 10
600.1085262197776
 20
510.7576634520437
 30
0.0
 11
600.1085262197776
 21
510.6781402326496
 31
0.0
  0
LINE
  5
BC
330
70
100
AcDbEntity
  8
1
 62
     7
370
    35
100
AcDbLine
 10
600.1085262197776
 20
510.6781402326496
 30
0.0
 11
600.2122284210608
 21
510.7098246218483
 31
0.0
  0
LINE
  5
BD
330
70
100
AcDbEntity
  8
1
 62
     7
370
    35
100
AcDbLine
 10
600.1085262197776
 20
510.6781402326496
 30
0.0
 11
599.9228057013424
 21
510.6213966332161
 31
0.0
  0
LINE
  5
BE
330
70
100
AcDbEntity
  8
1
 62
     7
370
    35
100
AcDbLine
 10
601.8877191316623
 20
475.2085694449606
 30
0.0
 11
601.7365712816135
 21
475.1623890645805
 31
0.0
  0
LINE
  5
BF
330
70
100
AcDbEntity
  8
1
 62
     7
370
    35
100
AcDbLine
 10
601.7365712816135
 20
509.7847194766782
 30
0.0
 11
601.8877191316623
 21
509.8308998570591
 31
0.0
  0
LINE
  5
C0
330
70
100
AcDbEntity
  8
1
 62
     7
370
    35
100
AcDbLine
 10
599.7716588091043
 20
489.3850703035541
 30
0.0
 11
599.9228057013424
 21
489.3153474067203
 31
0.0
  0
LINE
  5
C1
330
70
100
AcDbEntity
  8
1
 62
     7
370
    35
100
AcDbLine
 10
599.7716588091043
 20
495.1554589450243
 30
0.0
 11
593.0607251085039
 21
498.2511650467913
 31
0.0
  0
LINE
  5
C2
330
70
100
AcDbEntity
  8
1
 62
     7
370
    35
100
AcDbLine
 10
599.9228057013424
 20
495.0857355692842
 30
0.0
 11
599.7716588091043
 21
495.1554589450243
 31
0.0
  0
LINE
  5
C3
330
70
100
AcDbEntity
  8
1
 62
     7
370
    35
100
AcDbLine
 10
599.9228057013424
 20
489.3153474067203
 30
0.0
 11
599.9228057013424
 21
495.0857355692842
 31
0.0
  0
LINE
  5
C4
330
70
100
AcDbEntity
  8
1
 62
     7
370
    35
100
AcDbLine
 10
599.9228057013424
 20
510.6213966332161
 30
0.0
 11
601.7365712816135
 21
509.7847194766782
 31
0.0
  0
LINE
  5
C5
330
70
100
AcDbEntity
  8
1
 62
     7
370
    35
100
AcDbLine
 10
599.9228057013424
 20
495.751549772236
 30
0.0
 11
599.9228057013424
 21
510.6213966332161
 31
0.0
  0
LINE
  5
C6
330
70
100
AcDbEntity
  8
1
 62
     7
370
    35
100
AcDbLine
 10
513.164343970242
 20
535.7726137181644
 30
0.0
 11
599.9228057013424
 21
495.751549772236
 31
0.0
  0
LINE
  5
C7
330
70
100
AcDbEntity
  8
1
 62
     7
370
    35
100
AcDbLine
 10
513.164343970242
 20
550.6424605791435
 30
0.0
 11
513.164343970242
 21
535.7726137181644
 31
0.0
  0
LINE
  5
C8
330
70
100
AcDbEntity
  8
1
 62
     7
370
    35
100
AcDbLine
 10
511.3505783899699
 20
551.4791382145877
 30
0.0
 11
513.164343970242
 21
550.6424605791435
 31
0.0
  0
LINE
  5
C9
330
70
100
AcDbEntity
  8
1
 62
     7
370
    35
100
AcDbLine
 10
511.3505783899699
 20
516.8568078024891
 30
0.0
 11
511.3505783899699
 21
551.4791382145877
 31
0.0
  0
LINE
  5
CA
330
70
100
AcDbEntity
  8
1
 62
     7
370
    35
100
AcDbLine
 10
601.7365712816135
 20
475.1623890645805
 30
0.0
 11
511.3505783899699
 21
516.8568078024891
 31
0.0
  0
LINE
  5
CB
330
70
100
AcDbEntity
  8
1
 62
     7
370
    35
100
AcDbLine
 10
601.7365712816135
 20
509.7847194766782
 30
0.0
 11
601.7365712816135
 21
475.1623890645805
 31
0.0
  0
LINE
  5
CC
330
70
100
AcDbEntity
  8
1
 62
     7
370
    35
100
AcDbLine
 10
592.9095782162667
 20
498.3208879436261
 30
0.0
 11
586.1986449945725
 21
501.4165940453931
 31
0.0
  0
LINE
  5
CD
330
70
100
AcDbEntity
  8
1
 62
     7
370
    35
100
AcDbLine
 10
592.9095782162667
 20
498.3208879436261
 30
0.0
 11
592.9095782162667
 21
498.2049391703867
 31
0.0
  0
LINE
  5
CE
330
70
100
AcDbEntity
  8
1
 62
     7
370
    35
100
AcDbLine
 10
586.0474976234299
 20
501.4863169422278
 30
0.0
 11
579.3365644017349
 21
504.5820230439958
 31
0.0
  0
LINE
  5
CF
330
70
100
AcDbEntity
  8
1
 62
     7
370
    35
100
AcDbLine
 10
586.0474976234299
 20
501.4863169422278
 30
0.0
 11
586.0474976234299
 21
501.3703681689894
 31
0.0
  0
LINE
  5
D0
330
70
100
AcDbEntity
  8
1
 62
     7
370
    35
100
AcDbLine
 10
579.1854175094986
 20
504.6517459408296
 30
0.0
 11
533.9017326409912
 21
525.5407891436662
 31
0.0
  0
LINE
  5
D1
330
70
100
AcDbEntity
  8
1
 62
     7
370
    35
100
AcDbLine
 10
579.1854175094986
 20
504.6517459408296
 30
0.0
 11
579.1854175094986
 21
504.5357976464965
 31
0.0
  0
LINE
  5
D2
330
70
100
AcDbEntity
  8
1
 62
     7
370
    35
100
AcDbLine
 10
533.7505852698487
 20
525.6105125194062
 30
0.0
 11
527.0396520481535
 21
528.7062186211733
 31
0.0
  0
LINE
  5
D3
330
70
100
AcDbEntity
  8
1
 62
     7
370
    35
100
AcDbLine
 10
533.7505852698487
 20
525.6105125194062
 30
0.0
 11
533.7505852698487
 21
525.4945637461669
 31
0.0
  0
LINE
  5
D4
330
70
100
AcDbEntity
  8
1
 62
     7
370
    35
100
AcDbLine
 10
526.8885051559172
 20
528.775941518008
 30
0.0
 11
520.1775714553159
 21
531.871647619776
 31
0.0
  0
LINE
  5
D5
330
70
100
AcDbEntity
  8
1
 62
     7
370
    35
100
AcDbLine
 10
526.8885051559172
 20
528.775941518008
 30
0.0
 11
526.8885051559172
 21
528.6599927447687
 31
0.0
  0
LINE
  5
D6
330
70
100
AcDbEntity
  8
1
 62
     7
370
    35
100
AcDbLine
 10
513.164343970242
 20
535.1067995152115
 30
0.0
 11
513.164343970242
 21
534.9908512208785
 31
0.0
  0
LINE
  5
D7
330
70
100
AcDbEntity
  8
1
 62
     7
370
    35
100
AcDbLine
 10
513.3154913413854
 20
535.0370766183778
 30
0.0
 11
513.164343970242
 21
535.1067995152115
 31
0.0
  0
LINE
  5
D8
330
70
100
AcDbEntity
  8
1
 62
     7
370
    35
100
AcDbLine
 10
520.0264245630797
 20
531.9413705166097
 30
0.0
 11
513.3154913413854
 21
535.0370766183778
 31
0.0
  0
LINE
  5
D9
330
70
100
AcDbEntity
  8
1
 62
     7
370
    35
100
AcDbLine
 10
520.0264245630797
 20
531.9413705166097
 30
0.0
 11
520.0264245630797
 21
531.8254217433714
 31
0.0
  0
LINE
  5
DA
330
70
100
AcDbEntity
  8
1
 62
     7
370
    35
100
AcDbLine
 10
469.9925543829849
 20
520.8404416139146
 30
0.0
 11
469.9925543829849
 21
255.37205926143
 31
0.0
  0
LINE
  5
DB
330
70
100
AcDbEntity
  8
1
 62
     7
370
    35
100
AcDbLine
 10
469.9925543829849
 20
255.37205926143
 30
0.0
 11
645.323243425456
 21
174.4932537341301
 31
0.0
  0
LINE
  5
DC
330
70
100
AcDbEntity
  8
1
 62
     7
370
    35
100
AcDbLine
 10
663.921015847839
 20
444.7594595669861
 30
0.0
 11
663.921015847839
 21
179.0164287300704
 31
0.0
  0
LINE
  5
DD
330
70
100
AcDbEntity
  8
1
 62
     7
370
    35
100
AcDbLine
 10
648.6919213634283
 20
174.3634583655948
 30
0.0
 11
663.921015847839
 21
179.0164287300704
 31
0.0
  0
LINE
  5
DE
330
70
100
AcDbEntity
  8
1
 62
     7
370
    35
100
AcDbLine
 10
648.6919213634283
 20
440.1064892025097
 30
0.0
 11
648.6919213634283
 21
174.3634583655948
 31
0.0
  0
LINE
  5
DF
330
70
100
AcDbEntity
  8
1
 62
     7
370
    35
100
AcDbLine
 10
645.323243425456
 20
174.4932537341301
 30
0.0
 11
645.323243425456
 21
439.9949272038329
 31
0.0
  0
LINE
  5
E0
330
70
100
AcDbEntity
  8
1
 62
     7
370
    35
100
AcDbLine
 10
497.9712133747552
 20
591.7672188065807
 30
0.0
 11
682.2061108562657
 21
648.0568153281037
 31
0.0
  0
LINE
  5
E1
330
70
100
AcDbEntity
  8
1
 62
     7
370
    35
100
AcDbLine
 10
686.248524573395
 20
647.9010604069535
 30
0.0
 11
852.5103847566933
 21
571.2056416201558
 31
0.0
  0
LINE
  5
E2
330
70
100
AcDbEntity
  8
1
 62
     7
370
    35
100
AcDbLine
 10
663.920991423658
 20
180.1754547975397
 30
0.0
 11
664.2667511520239
 21
180.2810956083667
 31
0.0
  0
LINE
  5
E3
330
70
100
AcDbEntity
  8
1
 62
     7
370
    35
100
AcDbLine
 10
664.2667511520239
 20
180.2810956083667
 30
0.0
 11
664.2667511520239
 21
444.8660261021841
 31
0.0
  0
LINE
  5
E4
330
70
100
AcDbEntity
  8
1
 62
     7
370
    35
100
AcDbLine
 10
840.4504987932487
 20
197.4022198498314
 30
0.0
 11
667.5445615566468
 21
144.5739795414047
 31
0.0
  0
LINE
  5
E5
330
70
100
AcDbEntity
  8
1
 62
     7
370
    35
100
AcDbLine
 10
840.4504987932487
 20
197.4022198498314
 30
0.0
 11
840.4504987932487
 21
228.7471153192346
 31
0.0
  0
LINE
  5
E6
330
70
100
AcDbEntity
  8
1
 62
     7
370
    35
100
AcDbLine
 10
843.8268521499885
 20
234.5871564584268
 30
0.0
 11
859.3940065198149
 21
242.6236086883091
 31
0.0
  0
LINE
  5
E7
330
70
100
AcDbEntity
  8
1
 62
     7
370
    35
100
AcDbLine
 10
859.3940065198149
 20
242.6236086883091
 30
0.0
 11
859.3940065198149
 21
555.3928767231927
 31
0.0
  0
LINE
  5
E8
330
70
100
AcDbEntity
  8
1
 62
     7
370
    35
100
AcDbLine
 10
667.5445615566468
 20
496.7747539241063
 30
0.0
 11
667.5445615566468
 21
144.5739795414047
 31
0.0
  0
LINE
  5
E9
330
70
100
AcDbEntity
  8
1
 62
     7
370
    35
100
AcDbLine
 10
666.5339583668183
 20
173.4687440858142
 30
0.0
 11
666.5339583668183
 21
496.4667616428505
 31
0.0
  0
LINE
  5
EA
330
70
100
AcDbEntity
  8
1
 62
     7
370
    35
100
AcDbLine
 10
601.8877186527561
 20
509.936934328225
 30
0.0
 11
511.1994310188274
 21
551.7707993387084
 31
0.0
  0
LINE
  5
EB
330
70
100
AcDbEntity
  8
1
 62
     7
370
    35
100
AcDbLine
 10
601.8877186527561
 20
462.2202609578089
 30
0.0
 11
601.8877186527561
 21
509.936934328225
 31
0.0
  0
LINE
  5
EC
330
70
100
AcDbEntity
  8
1
 62
     7
370
    35
100
AcDbLine
 10
511.1994310188274
 20
504.0541259682932
 30
0.0
 11
601.8877186527561
 21
462.2202609578089
 31
0.0
  0
LINE
  5
ED
330
70
100
AcDbEntity
  8
1
 62
     7
370
    35
100
AcDbLine
 10
511.1994310188274
 20
551.7707993387084
 30
0.0
 11
511.1994310188274
 21
504.0541259682932
 31
0.0
  0
LINE
  5
EE
330
70
100
AcDbEntity
  8
1
 62
     7
370
    35
100
AcDbLine
 10
468.1224948955623
 20
572.3076990025965
 30
0.0
 11
468.1224948955623
 21
521.7058315509002
 31
0.0
  0
LINE
  5
EF
330
70
100
AcDbEntity
  8
1
 62
     7
370
    35
100
AcDbLine
 10
468.1224948955623
 20
521.7058315509002
 30
0.0
 11
644.9646552549275
 21
440.1297951396363
 31
0.0
  0
LINE
  5
F0
330
70
100
AcDbEntity
  8
1
 62
     7
370
    35
100
AcDbLine
 10
664.6767517457383
 20
495.5952991838731
 30
0.0
 11
664.6767517457383
 21
444.9934317321767
 31
0.0
  0
LINE
  5
F1
330
70
100
AcDbEntity
  8
1
 62
     7
370
    35
100
AcDbLine
 10
648.3333331928998
 20
439.9999997711002
 30
0.0
 11
664.6767517457383
 21
444.9934317321767
 31
0.0
  0
LINE
  5
F2
330
70
100
AcDbEntity
  8
1
 62
     7
370
    35
100
AcDbLine
 10
644.9646552549275
 20
440.1297951396363
 30
0.0
 11
644.9646552549275
 21
490.7316625913336
 31
0.0
  0
LINE
  5
F3
330
70
100
AcDbEntity
  8
1
 62
     7
370
    35
100
AcDbLine
 10
648.3333331928998
 20
490.6018672227974
 30
0.0
 11
664.6767517457383
 21
495.5952991838731
 31
0.0
  0
LINE
  5
F4
330
70
100
AcDbEntity
  8
1
 62
     7
370
    35
100
AcDbLine
 10
664.2747828765005
 20
495.780724217604
 30
0.0
 11
664.6767517457383
 21
495.5952991838731
 31
0.0
  0
LINE
  5
F5
330
70
100
AcDbEntity
  8
1
 62
     7
370
    35
100
AcDbLine
 10
863.0827135503823
 20
571.2299609213633
 30
0.0
 11
685.3336699219762
 21
653.2243361503478
 31
0.0
  0
LINE
  5
F6
330
70
100
AcDbEntity
  8
1
 62
     7
370
    35
100
AcDbLine
 10
685.3336699219762
 20
653.2243361503478
 30
0.0
 11
469.1548183663426
 21
587.1748496255004
 31
0.0
  0
LINE
  5
F7
330
70
100
AcDbEntity
  8
1
 62
     7
370
    35
100
AcDbLine
 10
682.2061108562657
 20
649.2552802229493
 30
0.0
 11
497.9712133747552
 21
592.9656837014262
 31
0.0
  0
LINE
  5
F8
330
70
100
AcDbEntity
  8
1
 62
     7
370
    35
100
AcDbLine
 10
852.5103847566933
 20
572.4041069939066
 30
0.0
 11
686.248524573395
 21
649.0995257807044
 31
0.0
  0
LINE
  5
F9
330
70
100
AcDbEntity
  8
1
 62
     7
370
    35
100
AcDbLine
 10
667.8606047185976
 20
514.5969106015518
 30
0.0
 11
852.0955026790144
 21
570.8865071230747
 31
0.0
  0
LINE
  5
FA
330
70
100
AcDbEntity
  8
1
 62
     7
370
    35
100
AcDbLine
 10
497.5563308181708
 20
591.4480838305953
 30
0.0
 11
663.8181914803736
 21
514.7526650437957
 31
0.0
  0
LINE
  5
FB
330
70
100
AcDbEntity
  8
1
 62
     7
370
    35
100
AcDbLine
 10
466.9261707083905
 20
583.8306710572105
 30
0.0
 11
466.9261707083905
 21
573.1776462045091
 31
0.0
  0
LINE
  5
FC
330
70
100
AcDbEntity
  8
1
 62
     7
370
    35
100
AcDbLine
 10
466.9261707083905
 20
573.1776462045091
 30
0.0
 11
644.6752138578922
 21
491.1832714544297
 31
0.0
  0
LINE
  5
FD
330
70
100
AcDbEntity
  8
1
 62
     7
370
    35
100
AcDbLine
 10
648.7176275750216
 20
491.0275165332814
 30
0.0
 11
864.8964791306534
 21
557.0770025792226
 31
0.0
  0
LINE
  5
FE
330
70
100
AcDbEntity
  8
1
 62
     7
370
    35
100
AcDbLine
 10
864.8964791306534
 20
557.0770025792226
 30
0.0
 11
864.8964791306534
 21
567.7300274319232
 31
0.0
  0
LINE
  5
FF
330
70
100
AcDbEntity
  8
1
 62
     7
370
    35
100
AcDbLine
 10
864.8964791306534
 20
567.7300274319232
 30
0.0
 11
648.7176275750216
 21
501.6805413859811
 31
0.0
  0
LINE
  5
100
330
70
100
AcDbEntity
  8
1
 62
     7
370
    35
100
AcDbLine
 10
646.9038619947487
 20
505.1804748754202
 30
0.0
 11
863.0827135503823
 21
571.2299609213633
 31
0.0
  0
LINE
  5
101
330
70
100
AcDbEntity
  8
1
 62
     7
370
    35
100
AcDbLine
 10
648.7176275750216
 20
501.6805413859811
 30
0.0
 11
648.7176275750216
 21
491.0275165332814
 31
0.0
  0
LINE
  5
102
330
70
100
AcDbEntity
  8
1
 62
     7
370
    35
100
AcDbLine
 10
644.6752138578922
 20
491.1832714544297
 30
0.0
 11
644.6752138578922
 21
501.836295828225
 31
0.0
  0
LINE
  5
103
330
70
100
AcDbEntity
  8
1
 62
     7
370
    35
100
AcDbLine
 10
682.2061108562657
 20
649.2552802229493
 30
0.0
 11
682.2061108562657
 21
648.0568153281037
 31
0.0
  0
LINE
  5
104
330
70
100
AcDbEntity
  8
1
 62
     7
370
    35
100
AcDbLine
 10
497.9712133747552
 20
592.9656837014262
 30
0.0
 11
497.9712133747552
 21
591.7672188065807
 31
0.0
  0
LINE
  5
105
330
70
100
AcDbEntity
  8
1
 62
     7
370
    35
100
AcDbLine
 10
685.8666419594737
 20
149.5185310527777
 30
0.0
 11
685.0141010575862
 21
149.9118020399655
 31
0.0
  0
LINE
  5
106
330
70
100
AcDbEntity
  8
1
 62
     7
370
    35
100
AcDbLine
 10
685.8666419594737
 20
149.5185310527777
 30
0.0
 11
685.8666419594737
 21
150.1719722527177
 31
0.0
  0
LINE
  5
107
330
70
100
AcDbEntity
  8
1
 62
     7
370
    35
100
AcDbLine
 10
836.3003787457818
 20
195.4808025344537
 30
0.0
 11
685.8666419594737
 21
149.5185310527777
 31
0.0
  0
LINE
  5
108
330
70
100
AcDbEntity
  8
1
 62
     7
370
    35
100
AcDbLine
 10
836.3003787457818
 20
195.4808025344537
 30
0.0
 11
836.3003787457818
 21
196.1342432554866
 31
0.0
  0
LINE
  5
109
330
70
100
AcDbEntity
  8
1
 62
     7
370
    35
100
AcDbLine
 10
686.248524573395
 20
649.0995257807044
 30
0.0
 11
686.248524573395
 21
647.9010604069535
 31
0.0
  0
LINE
  5
10A
330
70
100
AcDbEntity
  8
1
 62
     7
370
    35
100
AcDbLine
 10
852.5103847566933
 20
572.4041069939066
 30
0.0
 11
852.5103847566933
 21
571.2056416201558
 31
0.0
  0
LINE
  5
10B
330
70
100
AcDbEntity
  8
1
 62
     7
370
    35
100
AcDbLine
 10
647.7415975324857
 20
170.2705517238755
 30
0.0
 11
467.5742002759553
 21
253.3804966545467
 31
0.0
  0
LINE
  5
10C
330
70
100
AcDbEntity
  8
1
 62
     7
370
    35
100
AcDbLine
 10
647.7415975324857
 20
170.2705517238755
 30
0.0
 11
651.0845697377718
 21
171.2919355558661
 31
0.0
  0
LINE
  5
10D
330
70
100
AcDbEntity
  8
1
 62
     7
370
    35
100
AcDbLine
 10
647.7415975324857
 20
138.755353620345
 30
0.0
 11
647.7415975324857
 21
170.2705517238755
 31
0.0
  0
LINE
  5
10E
330
70
100
AcDbEntity
  8
1
 62
     7
370
    35
100
AcDbLine
 10
647.7415975324857
 20
138.755353620345
 30
0.0
 11
666.6851052590555
 21
144.5431954945834
 31
0.0
  0
LINE
  5
10F
330
70
100
AcDbEntity
  8
1
 62
     7
370
    35
100
AcDbLine
 10
666.6851052590555
 20
144.5431954945834
 30
0.0
 11
666.6851052590555
 21
173.3951372652118
 31
0.0
  0
LINE
  5
110
330
70
100
AcDbEntity
  8
1
 62
     7
370
    35
100
AcDbLine
 10
656.2847480852306
 20
170.2174985703805
 30
0.0
 11
666.6851052590555
 21
173.3951372652118
 31
0.0
  0
LINE
  5
111
330
70
100
AcDbEntity
  8
1
 62
     7
370
    35
100
AcDbLine
 10
658.2510192127001
 20
177.2857216497395
 30
0.0
 11
666.6851052590555
 21
173.3951372652118
 31
0.0
  0
LINE
  5
112
330
70
100
AcDbEntity
  8
1
 62
     7
370
    35
100
AcDbLine
 10
656.2847480852306
 20
170.2174985703805
 30
0.0
 11
647.6873854276309
 21
174.1834013838379
 31
0.0
  0
LINE
  5
113
330
70
100
AcDbEntity
  8
1
 62
     7
370
    35
100
AcDbLine
 10
470.917172002335
 20
254.4018804865373
 30
0.0
 11
651.0845697377718
 21
171.2919355558661
 31
0.0
  0
LINE
  5
114
330
70
100
AcDbEntity
  8
1
 62
     7
370
    35
100
AcDbLine
 10
467.5742002759553
 20
253.3804966545467
 30
0.0
 11
470.917172002335
 21
254.4018804865373
 31
0.0
  0
LINE
  5
115
330
70
100
AcDbEntity
  8
1
 62
     7
370
    35
100
AcDbLine
 10
467.5742002759553
 20
253.3804966545467
 30
0.0
 11
467.5742002759553
 21
221.8652985510161
 31
0.0
  0
LINE
  5
116
330
70
100
AcDbEntity
  8
1
 62
     7
370
    35
100
AcDbLine
 10
644.6752138578922
 20
501.836295828225
 30
0.0
 11
466.9261707083905
 21
583.8306710572105
 31
0.0
  0
LINE
  5
117
330
70
100
AcDbEntity
  8
1
 62
     7
370
    35
100
AcDbLine
 10
859.5706177763604
 20
242.4741757989286
 30
0.0
 11
859.5706177763604
 21
555.4488875971801
 31
0.0
  0
LINE
  5
118
330
70
100
AcDbEntity
  8
1
 62
     7
370
    35
100
AcDbLine
 10
684.4940594691288
 20
653.3091105687681
 30
0.0
 11
468.3152079134952
 21
587.2596240439206
 31
0.0
  0
LINE
  5
119
330
70
100
AcDbEntity
  8
1
 62
     7
370
    35
100
AcDbLine
 10
864.2863209327005
 20
571.1759092498568
 30
0.0
 11
686.5372773042945
 21
653.170283999937
 31
0.0
  0
LINE
  5
11A
330
70
100
AcDbEntity
  8
1
 62
     7
370
    35
100
AcDbLine
 10
644.9646552549275
 20
490.7316625913336
 30
0.0
 11
468.1224948955623
 21
572.3076990025965
 31
0.0
  0
LINE
  5
11B
330
70
100
AcDbEntity
  8
1
 62
     7
370
    35
100
AcDbLine
 10
467.5742002759553
 20
221.8652985510161
 30
0.0
 11
647.7415975324857
 21
138.755353620345
 31
0.0
  0
LINE
  5
11C
330
70
100
AcDbEntity
  8
1
 62
     7
370
    35
100
AcDbLine
 10
469.1548183663426
 20
587.1748496255004
 30
0.0
 11
646.9038619947487
 21
505.1804748754202
 31
0.0
  0
LINE
  5
11D
330
70
100
AcDbEntity
  8
1
 62
     7
370
    35
100
AcDbLine
 10
648.3333331928998
 20
490.6018672227974
 30
0.0
 11
648.3333331928998
 21
439.9999997711002
 31
0.0
  0
LINE
  5
11E
330
70
100
AcDbEntity
  8
1
 62
     7
370
    18
100
AcDbLine
 10
419.0890450236911
 20
610.2865748401191
 30
0.0
 11
419.0890450236911
 21
244.09375
 31
0.0
  0
LINE
  5
11F
330
70
100
AcDbEntity
  8
1
 62
     7
370
    18
100
AcDbLine
 10
462.6702955792934
 20
223.8895807666759
 30
0.0
 11
415.8148148148138
 21
245.8518518518558
 31
0.0
  0
LINE
  5
120
330
70
100
AcDbEntity
  8
1
 62
     7
370
    18
100
AcDbLine
 10
463.0555555555547
 20
589.8333333333339
 30
0.0
 11
416.8847263274155
 21
611.479918820467
 31
0.0
  0
LINE
  5
121
330
70
100
AcDbEntity
  8
1
 62
     7
370
    18
100
AcDbLine
 10
452.3024214214593
 20
580.3743379178749
 30
0.0
 11
452.3024214214593
 21
228.8245216099913
 31
0.0
  0
LINE
  5
122
330
70
100
AcDbEntity
  8
1
 62
     7
370
    20
100
AcDbLine
 10
462.1111111111113
 20
575.5555555555556
 30
0.0
 11
446.8830180798867
 21
583.0236008333931
 31
0.0
  0
LINE
  5
123
330
70
100
AcDbEntity
  8
1
 62
     7
370
    18
100
AcDbLine
 10
664.1681339695515
 20
659.2211388700925
 30
0.0
 11
452.9013693990036
 21
594.6724507737217
 31
0.0
  0
LINE
  5
124
330
70
100
AcDbEntity
  8
1
 62
     7
370
     5
100
AcDbLine
 10
463.0555555555547
 20
589.8333333333339
 30
0.0
 11
448.3297848529673
 21
596.6815949428855
 31
0.0
  0
LINE
  5
125
330
70
100
AcDbEntity
  8
1
 62
     7
370
    18
100
AcDbLine
 10
672.6296296296286
 20
655.555555555552
 30
0.0
 11
661.0050036959982
 21
660.9224051994997
 31
0.0
  0
LINE
  5
126
330
70
100
AcDbEntity
  8
1
 62
     7
370
    18
100
AcDbLine
 10
418.9629629629625
 20
610.592592592593
 30
0.0
 11
635.8888888888887
 21
677.0555555555556
 31
0.0
  0
LINE
  5
127
330
70
100
AcDbEntity
  8
1
 62
     7
370
    18
100
AcDbLine
 10
679.7777777777782
 20
657.0277777777792
 30
0.0
 11
633.6111111111113
 21
678.2592592592609
 31
0.0
  0
LINE
  5
128
330
70
100
AcDbEntity
  8
1
 62
     7
370
    18
100
AcDbLine
 10
463.0555555555547
 20
589.8333333333339
 30
0.0
 11
416.4074074074069
 21
611.7037037037043
 31
0.0
  0
LINE
  5
129
330
70
100
AcDbEntity
  8
1
 62
     7
370
    18
100
AcDbLine
 10
732.2350430415463
 20
668.1980250530241
 30
0.0
 11
912.637462703071
 21
584.9796664485638
 31
0.0
  0
LINE
  5
12A
330
70
100
AcDbEntity
  8
1
 62
     7
370
    18
100
AcDbLine
 10
875.0740740740729
 20
573.4074074074078
 30
0.0
 11
916.6111111111113
 21
585.9444444444443
 31
0.0
  0
LINE
  5
12B
330
70
100
AcDbEntity
  8
1
 62
     7
370
    18
100
AcDbLine
 10
692.8888888888886
 20
656.6111111111113
 30
0.0
 11
736.3333333333339
 21
669.4583333333339
 31
0.0
  0
SPLINE
  5
12C
330
70
100
AcDbEntity
  8
1
 62
     7
370
    35
100
AcDbSpline
210
0.0
220
0.0
230
1.0
 70
     8
 71
     3
 72
     8
 73
     4
 74
     0
 42
0.0000000001
 43
0.0000000001
 40
0.0
 40
0.0
 40
0.0
 40
0.0
 40
1.0
 40
1.0
 40
1.0
 40
1.0
 10
865.9561466699051
 20
568.5667045884611
 30
0.0
 10
865.9561466699051
 20
569.6877004146672
 30
0.0
 10
865.304234749281
 20
570.7063524794903
 30
0.0
 10
864.286320986026
 20
571.1759088796661
 30
0.0
  0
SPLINE
  5
12D
330
70
100
AcDbEntity
  8
1
 62
     7
370
    35
100
AcDbSpline
210
0.0
220
0.0
230
1.0
 70
     8
 71
     3
 72
     8
 73
     4
 74
     0
 42
0.0000000001
 43
0.0000000001
 40
0.0
 40
0.0
 40
0.0
 40
0.0
 40
1.0
 40
1.0
 40
1.0
 40
1.0
 10
686.53727735762
 20
653.1702841086508
 30
0.0
 10
685.896369757691
 20
653.4659302393256
 30
0.0
 10
685.1690674935853
 20
653.5153467517593
 30
0.0
 10
684.4940595181396
 20
653.3091104326595
 30
0.0
  0
SPLINE
  5
12E
330
70
100
AcDbEntity
  8
1
 62
     7
370
    35
100
AcDbSpline
210
0.0
220
0.0
230
1.0
 70
     8
 71
     3
 72
     8
 73
     4
 74
     0
 42
0.0000000001
 43
0.0000000001
 40
0.0
 40
0.0
 40
0.0
 40
0.0
 40
1.0
 40
1.0
 40
1.0
 40
1.0
 10
468.3152079625069
 20
587.259623907812
 30
0.0
 10
467.1068036499609
 20
586.8904181110374
 30
0.0
 10
466.2813852468189
 20
585.7751414329377
 30
0.0
 10
466.2813852468189
 20
584.5115932925991
 30
0.0
  0
SPLINE
  5
12F
330
70
100
AcDbEntity
  8
1
 62
     7
370
    35
100
AcDbSpline
210
0.0
220
0.0
230
1.0
 70
     8
 71
     3
 72
     8
 73
     4
 74
     0
 42
0.0000000001
 43
0.0000000001
 40
0.0
 40
0.0
 40
0.0
 40
0.0
 40
1.0
 40
1.0
 40
1.0
 40
1.0
 10
645.3232434185729
 20
174.4932541465205
 30
0.0
 10
646.1580060542591
 20
174.1081842886142
 30
0.0
 10
647.6662146059543
 20
174.0500728405677
 30
0.0
 10
648.6919215038615
 20
174.3634585944946
 30
0.0
  0
SPLINE
  5
130
330
70
100
AcDbEntity
  8
1
 62
     7
370
    35
100
AcDbSpline
210
0.0
220
0.0
230
1.0
 70
     8
 71
     3
 72
     8
 73
     4
 74
     0
 42
0.0000000001
 43
0.0000000001
 40
0.0
 40
0.0
 40
0.0
 40
0.0
 40
1.0
 40
1.0
 40
1.0
 40
1.0
 10
497.971213206235
 20
591.7672179572128
 30
0.0
 10
497.7488848745061
 20
591.6992896513784
 30
0.0
 10
497.5548828033424
 20
591.6192542803528
 30
0.0
 10
497.3956509331901
 20
591.5297702856769
 30
0.0
  0
SPLINE
  5
131
330
70
100
AcDbEntity
  8
1
 62
     7
370
    35
100
AcDbSpline
210
0.0
220
0.0
230
1.0
 70
     8
 71
     3
 72
     8
 73
     4
 74
     0
 42
0.0000000001
 43
0.0000000001
 40
0.0
 40
0.0
 40
0.0
 40
0.0
 40
1.0
 40
1.0
 40
1.0
 40
1.0
 10
852.6710666695725
 20
571.1239468807753
 30
0.0
 10
852.6209518084215
 20
571.1521101517273
 30
0.0
 10
852.5673317105574
 20
571.1793717344062
 30
0.0
 10
852.5103845733902
 20
571.2056410295072
 30
0.0
  0
SPLINE
  5
132
330
70
100
AcDbEntity
  8
1
 62
     7
370
    35
100
AcDbSpline
210
0.0
220
0.0
230
1.0
 70
     8
 71
     3
 72
     8
 73
     4
 74
     0
 42
0.0000000001
 43
0.0000000001
 40
0.0
 40
0.0
 40
0.0
 40
0.0
 40
1.0
 40
1.0
 40
1.0
 40
1.0
 10
686.2485243900919
 20
647.9010598163058
 30
0.0
 10
685.2468092272683
 20
648.3631436457926
 30
0.0
 10
683.4369589652379
 20
648.4328773834477
 30
0.0
 10
682.2061106877472
 20
648.0568144787357
 30
0.0
  0
SPLINE
  5
133
330
70
100
AcDbEntity
  8
1
 62
     7
370
    35
100
AcDbSpline
210
0.0
220
0.0
230
1.0
 70
     8
 71
     3
 72
     8
 73
     4
 74
     0
 42
0.0000000001
 43
0.0000000001
 40
0.0
 40
0.0
 40
0.0
 40
0.0
 40
1.0
 40
1.0
 40
1.0
 40
1.0
 10
843.8268521708195
 20
234.5871559583975
 30
0.0
 10
841.8741368473419
 20
233.5790779487143
 30
0.0
 10
840.4504989804882
 20
231.1166272438277
 30
0.0
 10
840.4504988641965
 20
228.7471149104567
 30
0.0
  0
SPLINE
  5
134
330
70
100
AcDbEntity
  8
1
 62
     7
370
    35
100
AcDbSpline
210
0.0
220
0.0
230
1.0
 70
     8
 71
     3
 72
     8
 73
     4
 74
     0
 42
0.0000000001
 43
0.0000000001
 40
0.0
 40
0.0
 40
0.0
 40
0.0
 40
1.0
 40
1.0
 40
1.0
 40
1.0
 10
666.6851145225154
 20
144.5606685781658
 30
0.0
 10
666.9477944293284
 20
144.4931070440198
 30
0.0
 10
667.2975985425682
 20
144.4985249301971
 30
0.0
 10
667.54456183823
 20
144.573979993198
 30
0.0
  0
SPLINE
  5
135
330
70
100
AcDbEntity
  8
1
 62
     7
370
    35
100
AcDbSpline
210
0.0
220
0.0
230
1.0
 70
     8
 71
     3
 72
     8
 73
     4
 74
     0
 42
0.0000000001
 43
0.0000000001
 40
0.0
 40
0.0
 40
0.0
 40
0.0
 40
1.0
 40
1.0
 40
1.0
 40
1.0
 10
644.9646552480444
 20
440.1297955520258
 30
0.0
 10
645.7994178837298
 20
439.7447256941195
 30
0.0
 10
647.3076264354249
 20
439.6866142460749
 30
0.0
 10
648.333333333333
 20
440.0000000000009
 30
0.0
  0
SPLINE
  5
136
330
70
100
AcDbEntity
  8
1
 62
     7
370
    35
100
AcDbSpline
210
0.0
220
0.0
230
1.0
 70
     8
 71
     3
 72
     8
 73
     4
 74
     0
 42
0.0000000001
 43
0.0000000001
 40
0.0
 40
0.0
 40
0.0
 40
0.0
 40
1.0
 40
1.0
 40
1.0
 40
1.0
 10
467.5851739170375
 20
572.8751350891744
 30
0.0
 10
467.585173567204
 20
572.6684229527054
 30
0.0
 10
467.7749348552424
 20
572.4680262995016
 30
0.0
 10
468.1224948886792
 20
572.3076994149869
 30
0.0
  0
SPLINE
  5
137
330
70
100
AcDbEntity
  8
1
 62
     7
370
    35
100
AcDbSpline
210
0.0
220
0.0
230
1.0
 70
     8
 71
     3
 72
     8
 73
     4
 74
     0
 42
0.0000000001
 43
0.0000000001
 40
0.0
 40
0.0
 40
0.0
 40
0.0
 40
1.0
 40
1.0
 40
1.0
 40
1.0
 10
644.9646552480444
 20
490.731663003723
 30
0.0
 10
645.7994178837298
 20
490.3465931458176
 30
0.0
 10
647.3076264354249
 20
490.2884816977712
 30
0.0
 10
648.333333333333
 20
490.6018674516981
 30
0.0
  0
SPLINE
  5
138
330
70
100
AcDbEntity
  8
1
 62
     7
370
    35
100
AcDbSpline
210
0.0
220
0.0
230
1.0
 70
     8
 71
     3
 72
     8
 73
     4
 74
     0
 42
0.0000000001
 43
0.0000000001
 40
0.0
 40
0.0
 40
0.0
 40
0.0
 40
1.0
 40
1.0
 40
1.0
 40
1.0
 10
686.2485243900919
 20
649.0995251900567
 30
0.0
 10
685.2468092272683
 20
649.5616090195435
 30
0.0
 10
683.4369589652379
 20
649.6313427571985
 30
0.0
 10
682.2061106877472
 20
649.2552798524866
 30
0.0
  0
SPLINE
  5
139
330
70
100
AcDbEntity
  8
1
 62
     7
370
    35
100
AcDbSpline
210
0.0
220
0.0
230
1.0
 70
     8
 71
     3
 72
     8
 73
     4
 74
     0
 42
0.0000000001
 43
0.0000000001
 40
0.0
 40
0.0
 40
0.0
 40
0.0
 40
1.0
 40
1.0
 40
1.0
 40
1.0
 10
852.0955023686292
 20
570.8865074935365
 30
0.0
 10
853.3263506461189
 20
571.2625703982484
 30
0.0
 10
853.5120997362136
 20
571.9420225737713
 30
0.0
 10
852.5103845733902
 20
572.4041064032589
 30
0.0
  0
SPLINE
  5
13A
330
70
100
AcDbEntity
  8
1
 62
     7
370
    35
100
AcDbSpline
210
0.0
220
0.0
230
1.0
 70
     8
 71
     3
 72
     8
 73
     4
 74
     0
 42
0.0000000001
 43
0.0000000001
 40
0.0
 40
0.0
 40
0.0
 40
0.0
 40
1.0
 40
1.0
 40
1.0
 40
1.0
 10
663.8181911847714
 20
514.7526656344443
 30
0.0
 10
664.819906347594
 20
514.2905818049585
 30
0.0
 10
666.6297566096281
 20
514.2208480673034
 30
0.0
 10
667.8606048871179
 20
514.5969109720153
 30
0.0
  0
SPLINE
  5
13B
330
70
100
AcDbEntity
  8
1
 62
     7
370
    35
100
AcDbSpline
210
0.0
220
0.0
230
1.0
 70
     8
 71
     3
 72
     8
 73
     4
 74
     0
 42
0.0000000001
 43
0.0000000001
 40
0.0
 40
0.0
 40
0.0
 40
0.0
 40
1.0
 40
1.0
 40
1.0
 40
1.0
 10
497.971213206235
 20
592.9656833309636
 30
0.0
 10
496.7403649287462
 20
592.5896204262516
 30
0.0
 10
496.5546158386514
 20
591.9101682507289
 30
0.0
 10
497.5563310014741
 20
591.4480844212421
 30
0.0
  0
SPLINE
  5
13C
330
70
100
AcDbEntity
  8
1
 62
     7
370
    35
100
AcDbSpline
210
0.0
220
0.0
230
1.0
 70
     8
 71
     3
 72
     8
 73
     4
 74
     0
 42
0.0000000001
 43
0.0000000001
 40
0.0
 40
0.0
 40
0.0
 40
0.0
 40
1.0
 40
1.0
 40
1.0
 40
1.0
 10
469.1548184970497
 20
587.174849414394
 30
0.0
 10
467.9239703320545
 20
586.7987862286463
 30
0.0
 10
466.9261706886673
 20
585.3015464010532
 30
0.0
 10
466.9261706164798
 20
583.8306706600924
 30
0.0
  0
SPLINE
  5
13D
330
70
100
AcDbEntity
  8
1
 62
     7
370
    35
100
AcDbSpline
210
0.0
220
0.0
230
1.0
 70
     8
 71
     3
 72
     8
 73
     4
 74
     0
 42
0.0000000001
 43
0.0000000001
 40
0.0
 40
0.0
 40
0.0
 40
0.0
 40
1.0
 40
1.0
 40
1.0
 40
1.0
 10
864.8964802426453
 20
567.730027580842
 30
0.0
 10
864.8964805147588
 20
569.2009034382427
 30
0.0
 10
864.0844297269795
 20
570.7678769692465
 30
0.0
 10
863.082714043092
 20
571.2299609210894
 30
0.0
  0
SPLINE
  5
13E
330
70
100
AcDbEntity
  8
1
 62
     7
370
    35
100
AcDbSpline
210
0.0
220
0.0
230
1.0
 70
     8
 71
     3
 72
     8
 73
     4
 74
     0
 42
0.0000000001
 43
0.0000000001
 40
0.0
 40
0.0
 40
0.0
 40
0.0
 40
1.0
 40
1.0
 40
1.0
 40
1.0
 10
644.6752140411954
 20
491.183271566173
 30
0.0
 10
645.676929204018
 20
490.7211877366862
 30
0.0
 10
647.4867794660521
 20
490.6514539990312
 30
0.0
 10
648.7176277435419
 20
491.0275169037431
 30
0.0
  0
SPLINE
  5
13F
330
70
100
AcDbEntity
  8
1
 62
     7
370
    35
100
AcDbSpline
210
0.0
220
0.0
230
1.0
 70
     8
 71
     3
 72
     8
 73
     4
 74
     0
 42
0.0000000001
 43
0.0000000001
 40
0.0
 40
0.0
 40
0.0
 40
0.0
 40
1.0
 40
1.0
 40
1.0
 40
1.0
 10
840.4504988213339
 20
197.4022199913925
 30
0.0
 10
840.5622452742136
 20
197.4363620513286
 30
0.0
 10
840.6271099582518
 20
197.4875769253667
 30
0.0
 10
840.6271100497907
 20
197.5416660081755
 30
0.0
  0
SPLINE
  5
140
330
70
100
AcDbEntity
  8
1
 62
     7
370
    35
100
AcDbSpline
210
0.0
220
0.0
230
1.0
 70
     8
 71
     3
 72
     8
 73
     4
 74
     0
 42
0.0000000001
 43
0.0000000001
 40
0.0
 40
0.0
 40
0.0
 40
0.0
 40
1.0
 40
1.0
 40
1.0
 40
1.0
 10
840.4504988213339
 20
228.7471154607956
 30
0.0
 10
840.5621079594238
 20
228.7812155667398
 30
0.0
 10
840.6269578228494
 20
228.8323491431583
 30
0.0
 10
840.6271097827593
 20
228.8863717308195
 30
0.0
  0
SPLINE
  5
141
330
70
100
AcDbEntity
  8
1
 62
     7
370
    35
100
AcDbSpline
210
0.0
220
0.0
230
1.0
 70
     8
 71
     3
 72
     8
 73
     4
 74
     0
 42
0.0000000001
 43
0.0000000001
 40
0.0
 40
0.0
 40
0.0
 40
0.0
 40
1.0
 40
1.0
 40
1.0
 40
1.0
 10
843.7447430537067
 20
234.3013163582182
 30
0.0
 10
843.8176898543133
 20
234.3393918202164
 30
0.0
 10
843.8485412082554
 20
234.4467918968876
 30
0.0
 10
843.8268523400983
 20
234.5871561197601
 30
0.0
  0
SPLINE
  5
142
330
70
100
AcDbEntity
  8
1
 62
     7
370
    35
100
AcDbSpline
210
0.0
220
0.0
230
1.0
 70
     8
 71
     3
 72
     8
 73
     4
 74
     0
 42
0.0000000001
 43
0.0000000001
 40
0.0
 40
0.0
 40
0.0
 40
0.0
 40
1.0
 40
1.0
 40
1.0
 40
1.0
 10
469.455233404461
 20
255.9394953480059
 30
0.0
 10
469.4552330546266
 20
255.732783211537
 30
0.0
 10
469.644994342665
 20
255.5323865583341
 30
0.0
 10
469.9925543761018
 20
255.3720596738185
 30
0.0
  0
SPLINE
  5
143
330
70
100
AcDbEntity
  8
1
 62
     7
370
    35
100
AcDbSpline
210
0.0
220
0.0
230
1.0
 70
     8
 71
     3
 72
     8
 73
     4
 74
     0
 42
0.0000000001
 43
0.0000000001
 40
0.0
 40
0.0
 40
0.0
 40
0.0
 40
1.0
 40
1.0
 40
1.0
 40
1.0
 10
467.5851739170375
 20
522.2732676374762
 30
0.0
 10
467.585173567204
 20
522.0665555010072
 30
0.0
 10
467.7749348552424
 20
521.8661588478044
 30
0.0
 10
468.1224948886792
 20
521.7058319632887
 30
0.0
  0
SPLINE
  5
144
330
70
100
AcDbEntity
  8
1
 62
     7
370
    35
100
AcDbSpline
210
0.0
220
0.0
230
1.0
 70
     8
 71
     3
 72
     8
 73
     4
 74
     0
 42
0.0000000001
 43
0.0000000001
 40
0.0
 40
0.0
 40
0.0
 40
0.0
 40
1.0
 40
1.0
 40
1.0
 40
1.0
 10
685.3336704146859
 20
653.2243361500741
 30
0.0
 10
685.0412832205838
 20
653.3592121755682
 30
0.0
 10
684.7532298106853
 20
653.3882960832652
 30
0.0
 10
684.4940564833632
 20
653.3091095054333
 30
0.0
  0
SPLINE
  5
145
330
70
100
AcDbEntity
  8
1
 62
     7
370
    35
100
AcDbSpline
210
0.0
220
0.0
230
1.0
 70
     8
 71
     3
 72
     8
 73
     4
 74
     0
 42
0.0000000001
 43
0.0000000001
 40
0.0
 40
0.0
 40
0.0
 40
0.0
 40
1.0
 40
1.0
 40
1.0
 40
1.0
 10
466.2813852468189
 20
573.8585696041828
 30
0.0
 10
466.281384827017
 20
573.61051504042
 30
0.0
 10
466.509098372664
 20
573.3700390565764
 30
0.0
 10
466.9261704127875
 20
573.1776467951577
 30
0.0
  0
SPLINE
  5
146
330
70
100
AcDbEntity
  8
1
 62
     7
370
    35
100
AcDbSpline
210
0.0
220
0.0
230
1.0
 70
     8
 71
     3
 72
     8
 73
     4
 74
     0
 42
0.0000000001
 43
0.0000000001
 40
0.0
 40
0.0
 40
0.0
 40
0.0
 40
1.0
 40
1.0
 40
1.0
 40
1.0
 10
469.1548188590531
 20
587.1748496252275
 30
0.0
 10
468.8624316652203
 20
587.309725650598
 30
0.0
 10
468.5743782555782
 20
587.3388095583668
 30
0.0
 10
468.3152049284344
 20
587.2596229808014
 30
0.0
  0
SPLINE
  5
147
330
70
100
AcDbEntity
  8
1
 62
     7
370
    35
100
AcDbSpline
210
0.0
220
0.0
230
1.0
 70
     8
 71
     3
 72
     8
 73
     4
 74
     0
 42
0.0000000001
 43
0.0000000001
 40
0.0
 40
0.0
 40
0.0
 40
0.0
 40
1.0
 40
1.0
 40
1.0
 40
1.0
 10
466.2813852468189
 20
584.5115939779771
 30
0.0
 10
466.281384827017
 20
584.2635394142153
 30
0.0
 10
466.509098372664
 20
584.0230634303716
 30
0.0
 10
466.9261704127875
 20
583.8306711689528
 30
0.0
  0
SPLINE
  5
148
330
70
100
AcDbEntity
  8
1
 62
     7
370
    35
100
AcDbSpline
210
0.0
220
0.0
230
1.0
 70
     8
 71
     3
 72
     8
 73
     4
 74
     0
 42
0.0000000001
 43
0.0000000001
 40
0.0
 40
0.0
 40
0.0
 40
0.0
 40
1.0
 40
1.0
 40
1.0
 40
1.0
 10
686.5372917981476
 20
653.1702774472432
 30
0.0
 10
686.1781504997488
 20
653.3359514424846
 30
0.0
 10
685.7603956226594
 20
653.3547141466024
 30
0.0
 10
685.3336700526815
 20
653.2243359392414
 30
0.0
  0
SPLINE
  5
149
330
70
100
AcDbEntity
  8
1
 62
     7
370
    35
100
AcDbSpline
210
0.0
220
0.0
230
1.0
 70
     8
 71
     3
 72
     8
 73
     4
 74
     0
 42
0.0000000001
 43
0.0000000001
 40
0.0
 40
0.0
 40
0.0
 40
0.0
 40
1.0
 40
1.0
 40
1.0
 40
1.0
 10
859.5706177836763
 20
242.4741757762895
 30
0.0
 10
859.5706177334433
 20
242.4908160041559
 30
0.0
 10
859.5057530891208
 20
242.5456987176967
 30
0.0
 10
859.3940066629475
 20
242.6236084548764
 30
0.0
  0
SPLINE
  5
14A
330
70
100
AcDbEntity
  8
1
 62
     7
370
    35
100
AcDbSpline
210
0.0
220
0.0
230
1.0
 70
     8
 71
     3
 72
     8
 73
     4
 74
     0
 42
0.0000000001
 43
0.0000000001
 40
0.0
 40
0.0
 40
0.0
 40
0.0
 40
1.0
 40
1.0
 40
1.0
 40
1.0
 10
651.0845697117583
 20
171.2919354708647
 30
0.0
 10
652.4399684893388
 20
170.0053520395067
 30
0.0
 10
654.3194193155478
 20
169.6170286281849
 30
0.0
 10
656.2847476640654
 20
170.2174988249171
 30
0.0
  0
SPLINE
  5
14B
330
70
100
AcDbEntity
  8
1
 62
     7
370
    35
100
AcDbSpline
210
0.0
220
0.0
230
1.0
 70
     8
 71
     3
 72
     8
 73
     4
 74
     0
 42
0.0000000001
 43
0.0000000001
 40
0.0
 40
0.0
 40
0.0
 40
0.0
 40
1.0
 40
1.0
 40
1.0
 40
1.0
 10
473.7819140908014
 20
253.0803900351311
 30
0.0
 10
474.1624924671769
 20
253.0402601442238
 30
0.0
 10
474.5534000256948
 20
253.0417949497332
 30
0.0
 10
474.9505076345513
 20
253.0849782396035
 30
0.0
  0
SPLINE
  5
14C
330
70
100
AcDbEntity
  8
1
 62
     7
370
    35
100
AcDbSpline
210
0.0
220
0.0
230
1.0
 70
     8
 71
     3
 72
     8
 73
     4
 74
     0
 42
0.0000000001
 43
0.0000000001
 40
0.0
 40
0.0
 40
0.0
 40
0.0
 40
1.0
 40
1.0
 40
1.0
 40
1.0
 10
864.8964792991755
 20
557.0770034285906
 30
0.0
 10
865.5669580164504
 20
557.281855788201
 30
0.0
 10
865.9561461206722
 20
557.5891450324215
 30
0.0
 10
865.9561466699051
 20
557.913679529287
 30
0.0
  0
SPLINE
  5
14D
330
70
100
AcDbEntity
  8
1
 62
     7
370
    35
100
AcDbSpline
210
0.0
220
0.0
230
1.0
 70
     8
 71
     3
 72
     8
 73
     4
 74
     0
 42
0.0000000001
 43
0.0000000001
 40
0.0
 40
0.0
 40
0.0
 40
0.0
 40
1.0
 40
1.0
 40
1.0
 40
1.0
 10
864.2863354265537
 20
571.1759022182587
 30
0.0
 10
863.9271941281549
 20
571.3415762135
 30
0.0
 10
863.5094392510655
 20
571.3603389176178
 30
0.0
 10
863.0827136810877
 20
571.2299607102559
 30
0.0
  0
SPLINE
  5
14E
330
70
100
AcDbEntity
  8
1
 62
     7
370
    35
100
AcDbSpline
210
0.0
220
0.0
230
1.0
 70
     8
 71
     3
 72
     8
 73
     4
 74
     0
 42
0.0000000001
 43
0.0000000001
 40
0.0
 40
0.0
 40
0.0
 40
0.0
 40
1.0
 40
1.0
 40
1.0
 40
1.0
 10
864.8964792991755
 20
567.7300278023858
 30
0.0
 10
865.5669580164504
 20
567.9348801619962
 30
0.0
 10
865.9561461206722
 20
568.2421694062159
 30
0.0
 10
865.9561466699051
 20
568.5667039030831
 30
0.0
  0
SPLINE
  5
14F
330
70
100
AcDbEntity
  8
1
 62
     7
370
    35
100
AcDbSpline
210
0.0
220
0.0
230
1.0
 70
     8
 71
     3
 72
     8
 73
     4
 74
     0
 42
0.0000000001
 43
0.0000000001
 40
0.0
 40
0.0
 40
0.0
 40
0.0
 40
1.0
 40
1.0
 40
1.0
 40
1.0
 10
646.9038621254558
 20
505.1804746643138
 30
0.0
 10
645.6730139604624
 20
504.8044114785661
 30
0.0
 10
644.6752143170733
 20
503.307171650973
 30
0.0
 10
644.6752142448858
 20
501.8362959100122
 30
0.0
  0
SPLINE
  5
150
330
70
100
AcDbEntity
  8
1
 62
     7
370
    35
100
AcDbSpline
210
0.0
220
0.0
230
1.0
 70
     8
 71
     3
 72
     8
 73
     4
 74
     0
 42
0.0000000001
 43
0.0000000001
 40
0.0
 40
0.0
 40
0.0
 40
0.0
 40
1.0
 40
1.0
 40
1.0
 40
1.0
 10
644.6752140411954
 20
501.8362964188736
 30
0.0
 10
645.676929204018
 20
501.3742125893859
 30
0.0
 10
647.4867794660521
 20
501.3044788517317
 30
0.0
 10
648.7176277435419
 20
501.6805417564437
 30
0.0
  0
SPLINE
  5
151
330
70
100
AcDbEntity
  8
1
 62
     7
370
    35
100
AcDbSpline
210
0.0
220
0.0
230
1.0
 70
     8
 71
     3
 72
     8
 73
     4
 74
     0
 42
0.0000000001
 43
0.0000000001
 40
0.0
 40
0.0
 40
0.0
 40
0.0
 40
1.0
 40
1.0
 40
1.0
 40
1.0
 10
648.7176286870107
 20
501.6805415348999
 30
0.0
 10
648.7176289591279
 20
503.1514173923006
 30
0.0
 10
647.9055781713477
 20
504.7183909233044
 30
0.0
 10
646.9038624874602
 20
505.1804748751473
 30
0.0
  0
SPLINE
  5
152
330
70
100
AcDbEntity
  8
1
 62
     7
370
    35
100
AcDbSpline
210
0.0
220
0.0
230
1.0
 70
     8
 71
     3
 72
    35
 73
    31
 74
     0
 42
0.0000000001
 43
0.0000000001
 40
0.0
 40
0.0
 40
0.0
 40
0.0
 40
1.0
 40
1.0
 40
1.0
 40
2.0
 40
2.0
 40
2.0
 40
3.0
 40
3.0
 40
3.0
 40
4.0
 40
4.0
 40
4.0
 40
5.0
 40
5.0
 40
5.0
 40
6.0
 40
6.0
 40
6.0
 40
7.0
 40
7.0
 40
7.0
 40
8.0
 40
8.0
 40
8.0
 40
9.0
 40
9.0
 40
9.0
 40
10.0
 40
10.0
 40
10.0
 40
10.0
 10
840.6271099398619
 20
228.8865614379247
 30
0.0
 10
840.6271097096942
 20
229.006881259691
 30
0.0
 10
840.6311340736465
 20
229.1280013664273
 30
0.0
 10
840.6392131839057
 20
229.2503506657868
 30
0.0
 10
840.6549261322107
 20
229.4883061032852
 30
0.0
 10
840.6859764888432
 20
229.7309110620517
 30
0.0
 10
840.7320775050393
 20
229.9740866093143
 30
0.0
 10
840.7782364297672
 20
230.2175676149054
 30
0.0
 10
840.8394838487511
 20
230.461620643353
 30
0.0
 10
840.9150833127096
 20
230.703272390183
 30
0.0
 10
840.990697180452
 20
230.9449701783378
 30
0.0
 10
841.0806685626122
 20
231.1842657697689
 30
0.0
 10
841.1838556949151
 20
231.4179893854817
 30
0.0
 10
841.2870357175489
 20
231.6516968974684
 30
0.0
 10
841.4034296692371
 20
231.8798332015394
 30
0.0
 10
841.5315161803082
 20
232.0994671024164
 30
0.0
 10
841.6595194503933
 20
232.3189582673967
 30
0.0
 10
841.7992000872509
 20
232.529958076695
 30
0.0
 10
841.9487105757907
 20
232.7297536430378
 30
0.0
 10
842.0980243427511
 20
232.9292863241462
 30
0.0
 10
842.2571421107386
 20
233.1176442273445
 30
0.0
 10
842.4238461284549
 20
233.292398342217
 30
0.0
 10
842.5902751878275
 20
233.4668642210709
 30
0.0
 10
842.7642654923474
 20
233.6277711502335
 30
0.0
 10
842.9435624800245
 20
233.7731838007166
 30
0.0
 10
843.1225939115646
 20
233.9183810810391
 30
0.0
 10
843.3069163184882
 20
234.0481299457315
 30
0.0
 10
843.4932113260801
 20
234.1605888569775
 30
0.0
 10
843.5764050387552
 20
234.2108096034754
 30
0.0
 10
843.6599921363995
 20
234.2575823091247
 30
0.0
 10
843.7442431060045
 20
234.3010570811548
 30
0.0
  0
MTEXT
  5
153
330
70
100
AcDbEntity
  8
1
100
AcDbMText
 10
414.7313569186954
 20
387.0402541914082
 30
0.0
 40
0.2
 41
0.0
 46
0.0
 71
     7
 72
     1
  1
\C7;\FTramontina SmCd Titulos|b0|i0|c1;\H14.757482;\W1.018310;845
 11
0.0000000000000001
 21
1.0
 31
0.0
 73
     1
 44
1.0
  0
MTEXT
  5
154
330
70
100
AcDbEntity
  8
1
100
AcDbMText
 10
448.1387658714083
 20
381.410624102602
 30
0.0
 40
0.2
 41
0.0
 46
0.0
 71
     7
 72
     1
  1
\C7;\FTramontina SmCd Titulos|b0|i0|c1;\H14.757482;\W1.018310;815
 11
0.0000000000000001
 21
1.0
 31
0.0
 73
     1
 44
1.0
  0
MTEXT
  5
155
330
70
100
AcDbEntity
  8
1
100
AcDbMText
 10
800.6602412902283
 20
641.8586948781739
 30
0.0
 40
0.2
 41
0.0
 46
0.0
 71
     7
 72
     1
  1
\C7;\FTramontina SmCd Titulos|b0|i0|c1;\H15.176953;\W0.954430;600
 11
0.9129596398461076
 21
-0.4080498695160498
 31
0.0
 73
     1
 44
1.0
  0
MTEXT
  5
156
330
70
100
AcDbEntity
  8
1
100
AcDbMText
 10
513.6719247947184
 20
644.2418030740228
 30
0.0
 40
0.2
 41
0.0
 46
0.0
 71
     7
 72
     1
  1
\C7;\FTramontina SmCd Titulos|b0|i0|c1;\H15.177026;\W0.954426;600
 11
0.9614639160752126
 21
0.2749311515367381
 31
0.0
 73
     1
 44
1.0
  0
MTEXT
  5
157
330
70
100
AcDbEntity
  8
1
100
AcDbMText
 10
539.3344332402193
 20
625.3069544318131
 30
0.0
 40
0.2
 41
0.0
 46
0.0
 71
     7
 72
     1
  1
\C7;\FTramontina SmCd Titulos|b0|i0|c1;\H15.176908;\W0.954429;580
 11
0.9595905170280618
 21
0.2814001414886232
 31
0.0
 73
     1
 44
1.0
  0
INSERT
  5
159
330
70
100
AcDbEntity
  8
1
100
AcDbBlockReference
  2
Block_0
 10
0.0
 20
0.0
 30
0.0
  0
MTEXT
  5
170
330
70
100
AcDbEntity
  8
1
100
AcDbMText
 10
1021.4287109375
 20
128.8857421875
 30
0.0
 40
0.2
 41
0.0
 46
0.0
 71
     7
 72
     1
  1
\C253;\FFrutiger Bold|b1|i0|c1;\H8.915794;\W1.000000;mm
 73
     1
 44
1.0
  0
INSERT
  5
172
330
70
100
AcDbEntity
  8
1
100
AcDbBlockReference
  2
Block_1
 10
0.0
 20
0.0
 30
0.0
  0
INSERT
  5
178
330
70
100
AcDbEntity
  8
1
100
AcDbBlockReference
  2
Block_2
 10
0.0
 20
0.0
 30
0.0
  0
ENDSEC
  0
SECTION
  2
OBJECTS
  0
DICTIONARY
  5
C
330
0
100
AcDbDictionary
281
     1
  3
ACAD_COLOR
350
63
  3
ACAD_DETAILVIEWSTYLE
350
6A
  3
ACAD_GROUP
350
D
  3
ACAD_LAYOUT
350
62
  3
ACAD_MATERIAL
350
10
  3
ACAD_MLEADERSTYLE
350
66
  3
ACAD_MLINESTYLE
350
5F
  3
ACAD_PLOTSETTINGS
350
61
  3
ACAD_PLOTSTYLENAME
350
E
  3
ACAD_SCALELIST
350
42
  3
ACAD_SECTIONVIEWSTYLE
350
68
  3
ACAD_TABLESTYLE
350
64
  3
ACAD_VISUALSTYLE
350
29
  3
ACDB_RECOMPOSE_DATA
350
186
  3
AcDbVariableDictionary
350
17E
  0
DICTIONARY
  5
63
102
{ACAD_REACTORS
330
C
102
}
330
C
100
AcDbDictionary
281
     1
  0
DICTIONARY
  5
6A
102
{ACAD_REACTORS
330
C
102
}
330
C
100
AcDbDictionary
281
     1
  3
Imperial24
350
6B
  0
DICTIONARY
  5
D
102
{ACAD_REACTORS
330
C
102
}
330
C
100
AcDbDictionary
281
     1
  0
DICTIONARY
  5
62
102
{ACAD_REACTORS
330
C
102
}
330
C
100
AcDbDictionary
281
     1
  3
Layout1
350
6F
  3
Layout2
350
77
  3
Model
350
73
  0
DICTIONARY
  5
10
102
{ACAD_REACTORS
330
C
102
}
330
C
100
AcDbDictionary
281
     1
  3
ByBlock
350
19
  3
ByLayer
350
11
  3
Global
350
21
  0
DICTIONARY
  5
66
102
{ACAD_REACTORS
330
C
102
}
330
C
100
AcDbDictionary
281
     1
  3
Standard
350
67
  0
DICTIONARY
  5
5F
102
{ACAD_REACTORS
330
C
102
}
330
C
100
AcDbDictionary
281
     1
  3
Standard
350
60
  0
DICTIONARY
  5
61
102
{ACAD_REACTORS
330
C
102
}
330
C
100
AcDbDictionary
281
     1
  0
ACDBDICTIONARYWDFLT
  5
E
102
{ACAD_REACTORS
330
C
102
}
330
C
100
AcDbDictionary
281
     1
  3
Normal
350
F
100
AcDbDictionaryWithDefault
340
F
  0
DICTIONARY
  5
42
102
{ACAD_REACTORS
330
C
102
}
330
C
100
AcDbDictionary
281
     1
  3
A0
350
43
  3
A1
350
44
  3
A2
350
45
  3
A3
350
46
  3
A4
350
47
  3
A5
350
48
  3
A6
350
49
  3
A7
350
4A
  3
A8
350
4B
  3
A9
350
4C
  3
B0
350
4D
  3
B1
350
4E
  3
B2
350
4F
  3
B3
350
50
  3
B4
350
51
  3
B5
350
52
  3
B6
350
53
  0
DICTIONARY
  5
68
102
{ACAD_REACTORS
330
C
102
}
330
C
100
AcDbDictionary
281
     1
  3
Imperial24
350
69
  0
DICTIONARY
  5
64
102
{ACAD_REACTORS
330
C
102
}
330
C
100
AcDbDictionary
281
     1
  3
Standard
350
65
  0
DICTIONARY
  5
29
102
{ACAD_REACTORS
330
C
102
}
330
C
100
AcDbDictionary
281
     1
  3
2dWireframe
350
2F
  3
Basic
350
2E
  3
Brighten
350
35
  3
ColorChange
350
39
  3
Conceptual
350
32
  3
Dim
350
34
  3
EdgeColorOff
350
41
  3
Facepattern
350
38
  3
Flat
350
2A
  3
FlatWithEdges
350
2B
  3
Gouraud
350
2C
  3
GouraudWithEdges
350
2D
  3
Hidden
350
31
  3
JitterOff
350
3F
  3
Linepattern
350
37
  3
OverhangOff
350
40
  3
Realistic
350
33
  3
Shaded
350
3E
  3
Shaded with edges
350
3D
  3
Shades of Gray
350
3A
  3
Sketchy
350
3B
  3
Thicken
350
36
  3
Wireframe
350
30
  3
X-Ray
350
3C
  0
XRECORD
  5
186
102
{ACAD_REACTORS
330
C
102
}
330
C
100
AcDbXrecord
280
     1
 90
        1
330
65
  0
DICTIONARY
  5
17E
102
{ACAD_REACTORS
330
C
102
}
330
C
100
AcDbDictionary
281
     1
  3
CANNOSCALE
350
183
  3
CMLEADERSTYLE
350
180
  3
CTABLESTYLE
350
17F
  3
CVIEWDETAILSTYLE
350
181
  3
CVIEWSECTIONSTYLE
350
182
  0
ACDBDETAILVIEWSTYLE
  5
6B
102
{ACAD_REACTORS
330
6A
102
}
330
6A
100
AcDbModelDocViewStyle
 70
     0
  3
Imperial24
290
     1
300
Imperial24
 90
        0
100
AcDbDetailViewStyle
 70
     0
 71
     0
 90
        3
 71
     1
340
55
 62
   256
 40
0.24
340
0
 62
   256
 40
0.24
300

 40
0.36
280
     3
 71
     2
340
5D
 90
       25
 62
   256
 71
     3
340
55
 62
   256
 40
0.24
 90
        1
 40
0.75
 90
        1
300
%<\AcVar ViewType \f "%tc1">% %<\AcVar ViewDetailId>%\PSCALE %<\AcVar ViewScale \f "%sn">%
 71
     4
340
5D
 90
       25
 62
   256
340
5D
 90
       25
 62
   256
280
     0
  0
LAYOUT
  5
6F
102
{ACAD_REACTORS
330
62
102
}
330
62
100
AcDbPlotSettings
  1

  2

  4

  6

 40
0.0
 41
0.0
 42
0.0
 43
0.0
 44
0.0
 45
0.0
 46
0.0
 47
0.0
 48
0.0
 49
0.0
140
0.0
141
0.0
142
1.0
143
1.0
 70
   688
 72
     0
 73
     0
 74
     5
  7

 75
    16
147
1.0
 76
     0
 77
     2
 78
   300
148
0.0
149
0.0
100
AcDbLayout
  1
Layout1
 70
     1
 71
     1
 10
0.0
 20
0.0
 11
12.0
 21
9.0
 12
0.0
 22
0.0
 32
0.0
 14
0.0
 24
0.0
 34
0.0
 15
0.0
 25
0.0
 35
0.0
146
0.0
 13
0.0
 23
0.0
 33
0.0
 16
1.0
 26
0.0
 36
0.0
 17
0.0
 27
1.0
 37
0.0
 76
     0
330
6C
  0
LAYOUT
  5
77
102
{ACAD_REACTORS
330
62
102
}
330
62
100
AcDbPlotSettings
  1

  2

  4

  6

 40
0.0
 41
0.0
 42
0.0
 43
0.0
 44
0.0
 45
0.0
 46
0.0
 47
0.0
 48
0.0
 49
0.0
140
0.0
141
0.0
142
1.0
143
1.0
 70
   688
 72
     0
 73
     0
 74
     5
  7

 75
    16
147
1.0
 76
     0
 77
     2
 78
   300
148
0.0
149
0.0
100
AcDbLayout
  1
Layout2
 70
     1
 71
     2
 10
0.0
 20
0.0
 11
12.0
 21
9.0
 12
0.0
 22
0.0
 32
0.0
 14
0.0
 24
0.0
 34
0.0
 15
0.0
 25
0.0
 35
0.0
146
0.0
 13
0.0
 23
0.0
 33
0.0
 16
1.0
 26
0.0
 36
0.0
 17
0.0
 27
1.0
 37
0.0
 76
     0
330
74
  0
LAYOUT
  5
73
102
{ACAD_REACTORS
330
62
102
}
330
62
100
AcDbPlotSettings
  1

  2

  4

  6

 40
0.0
 41
0.0
 42
0.0
 43
0.0
 44
0.0
 45
0.0
 46
0.0
 47
0.0
 48
0.0
 49
0.0
140
0.0
141
0.0
142
1.0
143
1.0
 70
  1712
 72
     0
 73
     0
 74
     0
  7

 75
     0
147
1.0
 76
     0
 77
     2
 78
   300
148
0.0
149
0.0
100
AcDbLayout
  1
Model
 70
     1
 71
     0
 10
0.0
 20
0.0
 11
12.0
 21
9.0
 12
0.0
 22
0.0
 32
0.0
 14
0.0
 24
0.0
 34
0.0
 15
0.0
 25
0.0
 35
0.0
146
0.0
 13
0.0
 23
0.0
 33
0.0
 16
1.0
 26
0.0
 36
0.0
 17
0.0
 27
1.0
 37
0.0
 76
     0
330
70
  0
MATERIAL
  5
19
102
{ACAD_XDICTIONARY
360
1A
102
}
102
{ACAD_REACTORS
330
10
102
}
330
10
100
AcDbMaterial
  1
ByBlock
 72
     0
 43
0.0208333333333333
 43
0.0
 43
0.0
 43
0.0
 43
0.0
 43
0.0208333333333333
 43
0.0
 43
0.0
 43
0.0
 43
0.0
 43
1.0
 43
0.0
 43
0.0
 43
0.0
 43
0.0
 43
1.0
 77
     0
 47
0.0208333333333333
 47
0.0
 47
0.0
 47
0.0
 47
0.0
 47
0.0208333333333333
 47
0.0
 47
0.0
 47
0.0
 47
0.0
 47
1.0
 47
0.0
 47
0.0
 47
0.0
 47
0.0
 47
1.0
171
     0
 49
0.0208333333333333
 49
0.0
 49
0.0
 49
0.0
 49
0.0
 49
0.0208333333333333
 49
0.0
 49
0.0
 49
0.0
 49
0.0
 49
1.0
 49
0.0
 49
0.0
 49
0.0
 49
0.0
 49
1.0
175
     0
142
0.0208333333333333
142
0.0
142
0.0
142
0.0
142
0.0
142
0.0208333333333333
142
0.0
142
0.0
142
0.0
142
0.0
142
1.0
142
0.0
142
0.0
142
0.0
142
0.0
142
1.0
179
     0
144
0.0208333333333333
144
0.0
144
0.0
144
0.0
144
0.0
144
0.0208333333333333
144
0.0
144
0.0
144
0.0
144
0.0
144
1.0
144
0.0
144
0.0
144
0.0
144
0.0
144
1.0
147
0.0208333333333333
147
0.0
147
0.0
147
0.0
147
0.0
147
0.0208333333333333
147
0.0
147
0.0
147
0.0
147
0.0
147
1.0
147
0.0
147
0.0
147
0.0
147
0.0
147
1.0
  0
MATERIAL
  5
11
102
{ACAD_XDICTIONARY
360
12
102
}
102
{ACAD_REACTORS
330
10
102
}
330
10
100
AcDbMaterial
  1
ByLayer
 72
     0
 43
0.0208333333333333
 43
0.0
 43
0.0
 43
0.0
 43
0.0
 43
0.0208333333333333
 43
0.0
 43
0.0
 43
0.0
 43
0.0
 43
1.0
 43
0.0
 43
0.0
 43
0.0
 43
0.0
 43
1.0
 77
     0
 47
0.0208333333333333
 47
0.0
 47
0.0
 47
0.0
 47
0.0
 47
0.0208333333333333
 47
0.0
 47
0.0
 47
0.0
 47
0.0
 47
1.0
 47
0.0
 47
0.0
 47
0.0
 47
0.0
 47
1.0
171
     0
 49
0.0208333333333333
 49
0.0
 49
0.0
 49
0.0
 49
0.0
 49
0.0208333333333333
 49
0.0
 49
0.0
 49
0.0
 49
0.0
 49
1.0
 49
0.0
 49
0.0
 49
0.0
 49
0.0
 49
1.0
175
     0
142
0.0208333333333333
142
0.0
142
0.0
142
0.0
142
0.0
142
0.0208333333333333
142
0.0
142
0.0
142
0.0
142
0.0
142
1.0
142
0.0
142
0.0
142
0.0
142
0.0
142
1.0
179
     0
144
0.0208333333333333
144
0.0
144
0.0
144
0.0
144
0.0
144
0.0208333333333333
144
0.0
144
0.0
144
0.0
144
0.0
144
1.0
144
0.0
144
0.0
144
0.0
144
0.0
144
1.0
147
0.0208333333333333
147
0.0
147
0.0
147
0.0
147
0.0
147
0.0208333333333333
147
0.0
147
0.0
147
0.0
147
0.0
147
1.0
147
0.0
147
0.0
147
0.0
147
0.0
147
1.0
  0
MATERIAL
  5
21
102
{ACAD_XDICTIONARY
360
22
102
}
102
{ACAD_REACTORS
330
10
102
}
330
10
100
AcDbMaterial
  1
Global
 72
     0
 43
0.0208333333333333
 43
0.0
 43
0.0
 43
0.0
 43
0.0
 43
0.0208333333333333
 43
0.0
 43
0.0
 43
0.0
 43
0.0
 43
1.0
 43
0.0
 43
0.0
 43
0.0
 43
0.0
 43
1.0
 77
     0
 47
0.0208333333333333
 47
0.0
 47
0.0
 47
0.0
 47
0.0
 47
0.0208333333333333
 47
0.0
 47
0.0
 47
0.0
 47
0.0
 47
1.0
 47
0.0
 47
0.0
 47
0.0
 47
0.0
 47
1.0
171
     0
 49
0.0208333333333333
 49
0.0
 49
0.0
 49
0.0
 49
0.0
 49
0.0208333333333333
 49
0.0
 49
0.0
 49
0.0
 49
0.0
 49
1.0
 49
0.0
 49
0.0
 49
0.0
 49
0.0
 49
1.0
175
     0
142
0.0208333333333333
142
0.0
142
0.0
142
0.0
142
0.0
142
0.0208333333333333
142
0.0
142
0.0
142
0.0
142
0.0
142
1.0
142
0.0
142
0.0
142
0.0
142
0.0
142
1.0
179
     0
144
0.0208333333333333
144
0.0
144
0.0
144
0.0
144
0.0
144
0.0208333333333333
144
0.0
144
0.0
144
0.0
144
0.0
144
1.0
144
0.0
144
0.0
144
0.0
144
0.0
144
1.0
147
0.0208333333333333
147
0.0
147
0.0
147
0.0
147
0.0
147
0.0208333333333333
147
0.0
147
0.0
147
0.0
147
0.0
147
1.0
147
0.0
147
0.0
147
0.0
147
0.0
147
1.0
  0
MLEADERSTYLE
  5
67
102
{ACAD_REACTORS
330
66
102
}
330
66
100
AcDbMLeaderStyle
179
     2
170
     2
171
     1
172
     0
 90
        2
 40
0.0
 41
0.0
173
     1
 91
-1056964608
340
5B
 92
       -2
290
     1
 42
0.09
291
     1
 43
0.36
  3
Standard
 44
0.18
300

342
55
174
     1
178
     6
175
     1
176
     0
 93
-1056964608
 45
0.18
292
     0
297
     0
 46
0.18
 94
-1056964608
 47
1.0
 49
1.0
140
1.0
293
     1
141
0.0
294
     1
177
     0
142
1.0
295
     1
296
     0
143
0.125
271
     0
272
     9
273
     9
298
     1
  0
MLINESTYLE
  5
60
102
{ACAD_REACTORS
330
5F
102
}
330
5F
100
AcDbMlineStyle
  2
STANDARD
 70
     0
  3

 62
   256
 51
90.0
 52
90.0
 71
     2
 49
0.5
 62
   256
  6
BYLAYER
 49
-0.5
 62
   256
  6
BYLAYER
  0
ACDBPLACEHOLDER
  5
F
102
{ACAD_REACTORS
330
E
102
}
330
E
  0
SCALE
  5
43
102
{ACAD_REACTORS
330
42
102
}
330
42
100
AcDbScale
 70
     0
300
1:1
140
1.0
141
1.0
290
     1
  0
SCALE
  5
44
102
{ACAD_REACTORS
330
42
102
}
330
42
100
AcDbScale
 70
     0
300
1/128" = 1'-0"
140
0.0078125
141
12.0
290
     0
  0
SCALE
  5
45
102
{ACAD_REACTORS
330
42
102
}
330
42
100
AcDbScale
 70
     0
300
1/64" = 1'-0"
140
0.015625
141
12.0
290
     0
  0
SCALE
  5
46
102
{ACAD_REACTORS
330
42
102
}
330
42
100
AcDbScale
 70
     0
300
1/32" = 1'-0"
140
0.03125
141
12.0
290
     0
  0
SCALE
  5
47
102
{ACAD_REACTORS
330
42
102
}
330
42
100
AcDbScale
 70
     0
300
1/16" = 1'-0"
140
0.0625
141
12.0
290
     0
  0
SCALE
  5
48
102
{ACAD_REACTORS
330
42
102
}
330
42
100
AcDbScale
 70
     0
300
3/32" = 1'-0"
140
0.09375
141
12.0
290
     0
  0
SCALE
  5
49
102
{ACAD_REACTORS
330
42
102
}
330
42
100
AcDbScale
 70
     0
300
1/8" = 1'-0"
140
0.125
141
12.0
290
     0
  0
SCALE
  5
4A
102
{ACAD_REACTORS
330
42
102
}
330
42
100
AcDbScale
 70
     0
300
3/16" = 1'-0"
140
0.1875
141
12.0
290
     0
  0
SCALE
  5
4B
102
{ACAD_REACTORS
330
42
102
}
330
42
100
AcDbScale
 70
     0
300
1/4" = 1'-0"
140
0.25
141
12.0
290
     0
  0
SCALE
  5
4C
102
{ACAD_REACTORS
330
42
102
}
330
42
100
AcDbScale
 70
     0
300
3/8" = 1'-0"
140
0.375
141
12.0
290
     0
  0
SCALE
  5
4D
102
{ACAD_REACTORS
330
42
102
}
330
42
100
AcDbScale
 70
     0
300
1/2" = 1'-0"
140
0.5
141
12.0
290
     0
  0
SCALE
  5
4E
102
{ACAD_REACTORS
330
42
102
}
330
42
100
AcDbScale
 70
     0
300
3/4" = 1'-0"
140
0.75
141
12.0
290
     0
  0
SCALE
  5
4F
102
{ACAD_REACTORS
330
42
102
}
330
42
100
AcDbScale
 70
     0
300
1" = 1'-0"
140
1.0
141
12.0
290
     0
  0
SCALE
  5
50
102
{ACAD_REACTORS
330
42
102
}
330
42
100
AcDbScale
 70
     0
300
1-1/2" = 1'-0"
140
1.5
141
12.0
290
     0
  0
SCALE
  5
51
102
{ACAD_REACTORS
330
42
102
}
330
42
100
AcDbScale
 70
     0
300
3" = 1'-0"
140
3.0
141
12.0
290
     0
  0
SCALE
  5
52
102
{ACAD_REACTORS
330
42
102
}
330
42
100
AcDbScale
 70
     0
300
6" = 1'-0"
140
6.0
141
12.0
290
     0
  0
SCALE
  5
53
102
{ACAD_REACTORS
330
42
102
}
330
42
100
AcDbScale
 70
     0
300
1'-0" = 1'-0"
140
12.0
141
12.0
290
     0
  0
ACDBSECTIONVIEWSTYLE
  5
69
102
{ACAD_REACTORS
330
68
102
}
330
68
100
AcDbModelDocViewStyle
 70
     0
  3
Imperial24
290
     1
300
Imperial24
 90
        0
100
AcDbSectionViewStyle
 70
     0
 71
     0
 90
       78
 71
     1
340
55
 62
   256
 40
0.24
340
0
340
0
 62
   256
 40
0.24
300
I, O, Q, S, X, Z
 40
0.48
 90
        3
 40
0.18
 90
        1
 71
     2
340
5D
 90
       25
 62
   256
340
5D
 90
       50
 62
   256
 40
0.24
 40
0.0
 40
0.24
 71
     3
340
55
 62
   256
 40
0.24
 90
        1
 40
0.75
 90
        1
300
%<\AcVar ViewType \f "%tc1">% %<\AcVar ViewSectionStartId>%-%<\AcVar ViewSectionEndId>%\PSCALE %<\AcVar ViewScale \f "%sn">%
 71
     4
 62
   256
 62
   257
300
ANSI31
 40
1.0
 90
        0
290
     0
290
     0
 90
        6
 40
0.0
 40
1.570796326794896
 40
0.2617993877991494
 40
1.308996938995747
 40
-0.2617993877991494
 40
1.832595714594046
  0
TABLESTYLE
  5
65
102
{ACAD_XDICTIONARY
360
184
102
}
102
{ACAD_REACTORS
330
64
102
}
330
64
100
AcDbTableStyle
280
     0
  3
Standard
 70
     0
 71
     0
 40
0.06
 41
0.06
280
     0
281
     0
  7
Standard
140
0.18
170
     2
 62
     0
 63
     7
283
     0
 90
      512
 91
        0
  1

274
    -2
284
     1
 64
     0
275
    -2
285
     1
 65
     0
276
    -2
286
     1
 66
     0
277
    -2
287
     1
 67
     0
278
    -2
288
     1
 68
     0
279
    -2
289
     1
 69
     0
  7
Standard
140
0.25
170
     5
 62
     0
 63
     7
283
     0
 90
      512
 91
        0
  1

274
    -2
284
     1
 64
     0
275
    -2
285
     1
 65
     0
276
    -2
286
     1
 66
     0
277
    -2
287
     1
 67
     0
278
    -2
288
     1
 68
     0
279
    -2
289
     1
 69
     0
  7
Standard
140
0.18
170
     5
 62
     0
 63
     7
283
     0
 90
      512
 91
        0
  1

274
    -2
284
     1
 64
     0
275
    -2
285
     1
 65
     0
276
    -2
286
     1
 66
     0
277
    -2
287
     1
 67
     0
278
    -2
288
     1
 68
     0
279
    -2
289
     1
 69
     0
  0
VISUALSTYLE
  5
2F
102
{ACAD_REACTORS
330
29
102
}
330
29
100
AcDbVisualStyle
  2
2dWireframe
 70
     4
177
     3
291
     0
 70
    58
 90
        0
176
     1
 90
        2
176
     1
 90
        0
176
     1
 90
        0
176
     1
 40
0.6
176
     1
 40
30.0
176
     1
 62
     7
420
 16777215
176
     1
 90
        1
176
     1
 90
        4
176
     1
 62
     7
176
     1
 62
   257
176
     1
 90
        1
176
     1
 90
        1
176
     1
 40
1.0
176
     1
 90
        0
176
     1
 62
   257
176
     1
 40
1.0
176
     1
 90
        1
176
     1
 90
        6
176
     1
 90
        2
176
     1
 62
     7
176
     1
 90
        5
176
     1
 90
        0
176
     1
 90
        0
176
     1
290
     0
176
     1
 90
        1
176
     1
 40
0.0
176
     1
 90
        0
176
     1
290
     1
176
     1
290
     1
176
     1
290
     0
176
     1
290
     0
176
     1
290
     0
176
     1
290
     0
176
     1
290
     0
176
     1
290
     0
176
     1
290
     0
176
     1
 90
       50
176
     1
 40
0.0
176
     1
 40
1.0
176
     1
 90
        0
176
     1
 62
    18
420
        0
176
     1
 90
       50
176
     1
 90
        3
176
     1
 62
     5
420
      255
176
     1
290
     0
176
     1
 90
       50
176
     1
 90
       50
176
     1
 90
       50
176
     1
290
     0
176
     1
 90
       50
176
     1
 62
   256
176
     0
 40
1.0
176
     0
 90
        2
176
     1
  1
strokes_ogs.tif
176
     1
290
     0
176
     1
 40
1.0
176
     1
 40
1.0
176
     1
  0
VISUALSTYLE
  5
2E
102
{ACAD_REACTORS
330
29
102
}
330
29
100
AcDbVisualStyle
  2
Basic
 70
     7
177
     3
291
     1
 70
    58
 90
        1
176
     1
 90
        0
176
     1
 90
        1
176
     1
 90
        0
176
     1
 40
0.6
176
     1
 40
30.0
176
     1
 62
     7
420
 16777215
176
     1
 90
        0
176
     1
 90
        4
176
     1
 62
     7
176
     1
 62
   257
176
     1
 90
        1
176
     1
 90
        1
176
     1
 40
1.0
176
     1
 90
        8
176
     1
 62
     7
176
     1
 40
1.0
176
     1
 90
        1
176
     1
 90
        6
176
     1
 90
        2
176
     1
 62
     7
176
     1
 90
        5
176
     1
 90
        0
176
     1
 90
        0
176
     1
290
     0
176
     1
 90
        1
176
     1
 40
0.0
176
     1
 90
        0
176
     1
290
     0
176
     1
290
     1
176
     1
290
     1
176
     1
290
     0
176
     1
290
     0
176
     1
290
     0
176
     1
290
     0
176
     1
290
     0
176
     1
290
     0
176
     1
 90
       50
176
     1
 40
0.0
176
     1
 40
1.0
176
     1
 90
        0
176
     1
 62
    18
420
        0
176
     1
 90
       50
176
     1
 90
        3
176
     1
 62
     5
420
      255
176
     1
290
     0
176
     1
 90
       50
176
     1
 90
       50
176
     1
 90
       50
176
     1
290
     0
176
     1
 90
       50
176
     1
 62
   256
176
     0
 40
1.0
176
     0
 90
        2
176
     1
  1
strokes_ogs.tif
176
     1
290
     0
176
     1
 40
1.0
176
     1
 40
1.0
176
     1
  0
VISUALSTYLE
  5
35
102
{ACAD_REACTORS
330
29
102
}
330
29
100
AcDbVisualStyle
  2
Brighten
 70
    12
177
     3
291
     1
 70
    58
 90
        2
176
     1
 90
        2
176
     1
 90
        0
176
     1
 90
        0
176
     1
 40
0.6
176
     1
 40
30.0
176
     1
 62
     7
420
 16777215
176
     1
 90
        1
176
     1
 90
        4
176
     1
 62
     7
176
     1
 62
   257
176
     1
 90
        1
176
     1
 90
        1
176
     1
 40
1.0
176
     1
 90
        8
176
     1
 62
     7
176
     1
 40
1.0
176
     1
 90
        1
176
     1
 90
        6
176
     1
 90
        2
176
     1
 62
     7
176
     1
 90
        5
176
     1
 90
        0
176
     1
 90
        0
176
     1
290
     0
176
     1
 90
        1
176
     1
 40
50.0
176
     1
 90
        0
176
     1
290
     0
176
     1
290
     1
176
     1
290
     1
176
     1
290
     0
176
     1
290
     0
176
     1
290
     0
176
     1
290
     0
176
     1
290
     0
176
     1
290
     0
176
     1
 90
       50
176
     1
 40
0.0
176
     1
 40
1.0
176
     1
 90
        0
176
     1
 62
    18
420
        0
176
     1
 90
       50
176
     1
 90
        3
176
     1
 62
     5
420
      255
176
     1
290
     0
176
     1
 90
       50
176
     1
 90
       50
176
     1
 90
       50
176
     1
290
     0
176
     1
 90
       50
176
     1
 62
   256
176
     0
 40
1.0
176
     0
 90
        2
176
     1
  1
strokes_ogs.tif
176
     1
290
     0
176
     1
 40
1.0
176
     1
 40
1.0
176
     1
  0
VISUALSTYLE
  5
39
102
{ACAD_REACTORS
330
29
102
}
330
29
100
AcDbVisualStyle
  2
ColorChange
 70
    16
177
     3
291
     1
 70
    58
 90
        2
176
     1
 90
        2
176
     1
 90
        3
176
     1
 90
        0
176
     1
 40
0.6
176
     1
 40
30.0
176
     1
 62
     8
420
  8421504
176
     1
 90
        1
176
     1
 90
        4
176
     1
 62
     7
176
     1
 62
   257
176
     1
 90
        1
176
     1
 90
        1
176
     1
 40
1.0
176
     1
 90
        8
176
     1
 62
     8
420
  8421504
176
     1
 40
1.0
176
     1
 90
        1
176
     1
 90
        6
176
     1
 90
        2
176
     1
 62
     7
176
     1
 90
        5
176
     1
 90
        0
176
     1
 90
        0
176
     1
290
     0
176
     1
 90
        1
176
     1
 40
0.0
176
     1
 90
        0
176
     1
290
     0
176
     1
290
     1
176
     1
290
     1
176
     1
290
     0
176
     1
290
     0
176
     1
290
     0
176
     1
290
     0
176
     1
290
     0
176
     1
290
     0
176
     1
 90
       50
176
     1
 40
0.0
176
     1
 40
1.0
176
     1
 90
        0
176
     1
 62
    18
420
        0
176
     1
 90
       50
176
     1
 90
        3
176
     1
 62
     5
420
      255
176
     1
290
     0
176
     1
 90
       50
176
     1
 90
       50
176
     1
 90
       50
176
     1
290
     0
176
     1
 90
       50
176
     1
 62
   256
176
     0
 40
1.0
176
     0
 90
        2
176
     1
  1
strokes_ogs.tif
176
     1
290
     0
176
     1
 40
1.0
176
     1
 40
1.0
176
     1
  0
VISUALSTYLE
  5
32
102
{ACAD_REACTORS
330
29
102
}
330
29
100
AcDbVisualStyle
  2
Conceptual
 70
     9
177
     3
291
     0
 70
    58
 90
        3
176
     1
 90
        2
176
     1
 90
        0
176
     1
 90
        0
176
     1
 40
0.6
176
     1
 40
30.0
176
     1
 62
     7
420
 16777215
176
     1
 90
        2
176
     1
 90
        2
176
     1
 62
     7
176
     1
 62
   257
176
     1
 90
        1
176
     1
 90
        1
176
     1
 40
179.0
176
     1
 90
        8
176
     1
 62
     7
176
     1
 40
1.0
176
     1
 90
        1
176
     1
 90
        6
176
     1
 90
        2
176
     1
 62
     7
176
     1
 90
        3
176
     1
 90
        0
176
     1
 90
        0
176
     1
290
     0
176
     1
 90
        1
176
     1
 40
0.0
176
     1
 90
        0
176
     1
290
     0
176
     1
290
     1
176
     1
290
     1
176
     1
290
     0
176
     1
290
     0
176
     1
290
     0
176
     1
290
     0
176
     1
290
     0
176
     1
290
     0
176
     1
 90
       50
176
     1
 40
0.0
176
     1
 40
1.0
176
     1
 90
        0
176
     1
 62
    18
420
        0
176
     1
 90
       50
176
     1
 90
        3
176
     1
 62
     5
420
      255
176
     1
290
     0
176
     1
 90
       50
176
     1
 90
       50
176
     1
 90
       50
176
     1
290
     0
176
     1
 90
       50
176
     1
 62
   256
176
     0
 40
1.0
176
     0
 90
        2
176
     1
  1
strokes_ogs.tif
176
     1
290
     0
176
     1
 40
1.0
176
     1
 40
1.0
176
     1
  0
VISUALSTYLE
  5
34
102
{ACAD_REACTORS
330
29
102
}
330
29
100
AcDbVisualStyle
  2
Dim
 70
    11
177
     3
291
     1
 70
    58
 90
        2
176
     1
 90
        2
176
     1
 90
        0
176
     1
 90
        0
176
     1
 40
0.6
176
     1
 40
30.0
176
     1
 62
     7
420
 16777215
176
     1
 90
        1
176
     1
 90
        4
176
     1
 62
     7
176
     1
 62
   257
176
     1
 90
        1
176
     1
 90
        1
176
     1
 40
1.0
176
     1
 90
        8
176
     1
 62
     7
176
     1
 40
1.0
176
     1
 90
        1
176
     1
 90
        6
176
     1
 90
        2
176
     1
 62
     7
176
     1
 90
        5
176
     1
 90
        0
176
     1
 90
        0
176
     1
290
     0
176
     1
 90
        1
176
     1
 40
-50.0
176
     1
 90
        0
176
     1
290
     0
176
     1
290
     1
176
     1
290
     1
176
     1
290
     0
176
     1
290
     0
176
     1
290
     0
176
     1
290
     0
176
     1
290
     0
176
     1
290
     0
176
     1
 90
       50
176
     1
 40
0.0
176
     1
 40
1.0
176
     1
 90
        0
176
     1
 62
    18
420
        0
176
     1
 90
       50
176
     1
 90
        3
176
     1
 62
     5
420
      255
176
     1
290
     0
176
     1
 90
       50
176
     1
 90
       50
176
     1
 90
       50
176
     1
290
     0
176
     1
 90
       50
176
     1
 62
   256
176
     0
 40
1.0
176
     0
 90
        2
176
     1
  1
strokes_ogs.tif
176
     1
290
     0
176
     1
 40
1.0
176
     1
 40
1.0
176
     1
  0
VISUALSTYLE
  5
41
102
{ACAD_REACTORS
330
29
102
}
330
29
100
AcDbVisualStyle
  2
EdgeColorOff
 70
    22
177
     3
291
     1
 70
    58
 90
        2
176
     0
 90
        2
176
     0
 90
        0
176
     0
 90
        0
176
     0
 40
0.6
176
     0
 40
30.0
176
     0
 62
     7
420
 16777215
176
     0
 90
        1
176
     0
 90
        4
176
     0
 62
     7
176
     0
 62
   257
176
     0
 90
        1
176
     0
 90
        1
176
     0
 40
1.0
176
     0
 90
        8
176
     2
 62
     7
176
     0
 40
1.0
176
     0
 90
        1
176
     0
 90
        6
176
     0
 90
        2
176
     0
 62
     7
176
     0
 90
        5
176
     0
 90
        0
176
     0
 90
        0
176
     0
290
     0
176
     0
 90
        1
176
     0
 40
0.0
176
     0
 90
        0
176
     0
290
     0
176
     0
290
     1
176
     0
290
     1
176
     0
290
     0
176
     0
290
     0
176
     0
290
     0
176
     0
290
     0
176
     0
290
     0
176
     0
290
     0
176
     0
 90
       50
176
     0
 40
0.0
176
     0
 40
1.0
176
     0
 90
        0
176
     0
 62
    18
420
        0
176
     0
 90
       50
176
     0
 90
        3
176
     0
 62
     5
420
      255
176
     0
290
     0
176
     0
 90
       50
176
     0
 90
       50
176
     0
 90
       50
176
     0
290
     0
176
     0
 90
       50
176
     0
 62
   256
176
     0
 40
1.0
176
     0
 90
        2
176
     0
  1
strokes_ogs.tif
176
     0
290
     0
176
     0
 40
1.0
176
     0
 40
1.0
176
     0
  0
VISUALSTYLE
  5
38
102
{ACAD_REACTORS
330
29
102
}
330
29
100
AcDbVisualStyle
  2
Facepattern
 70
    15
177
     3
291
     1
 70
    58
 90
        2
176
     1
 90
        2
176
     1
 90
        0
176
     1
 90
        0
176
     1
 40
0.6
176
     1
 40
30.0
176
     1
 62
     7
420
 16777215
176
     1
 90
        1
176
     1
 90
        4
176
     1
 62
     7
176
     1
 62
   257
176
     1
 90
        1
176
     1
 90
        1
176
     1
 40
1.0
176
     1
 90
        8
176
     1
 62
     7
176
     1
 40
1.0
176
     1
 90
        1
176
     1
 90
        6
176
     1
 90
        2
176
     1
 62
     7
176
     1
 90
        5
176
     1
 90
        0
176
     1
 90
        0
176
     1
290
     0
176
     1
 90
        1
176
     1
 40
0.0
176
     1
 90
        0
176
     1
290
     0
176
     1
290
     1
176
     1
290
     1
176
     1
290
     0
176
     1
290
     0
176
     1
290
     0
176
     1
290
     0
176
     1
290
     0
176
     1
290
     0
176
     1
 90
       50
176
     1
 40
0.0
176
     1
 40
1.0
176
     1
 90
        0
176
     1
 62
    18
420
        0
176
     1
 90
       50
176
     1
 90
        3
176
     1
 62
     5
420
      255
176
     1
290
     0
176
     1
 90
       50
176
     1
 90
       50
176
     1
 90
       50
176
     1
290
     0
176
     1
 90
       50
176
     1
 62
   256
176
     0
 40
1.0
176
     0
 90
        2
176
     1
  1
strokes_ogs.tif
176
     1
290
     0
176
     1
 40
1.0
176
     1
 40
1.0
176
     1
  0
VISUALSTYLE
  5
2A
102
{ACAD_REACTORS
330
29
102
}
330
29
100
AcDbVisualStyle
  2
Flat
 70
     0
177
     3
291
     1
 70
    58
 90
        2
176
     1
 90
        1
176
     1
 90
        1
176
     1
 90
        2
176
     1
 40
0.6
176
     1
 40
30.0
176
     1
 62
     7
420
 16777215
176
     1
 90
        0
176
     1
 90
        0
176
     1
 62
     7
176
     1
 62
   257
176
     1
 90
        1
176
     1
 90
        1
176
     1
 40
1.0
176
     1
 90
        8
176
     1
 62
     7
176
     1
 40
1.0
176
     1
 90
        1
176
     1
 90
        6
176
     1
 90
        2
176
     1
 62
     7
176
     1
 90
        5
176
     1
 90
        0
176
     1
 90
        0
176
     1
290
     0
176
     1
 90
       13
176
     1
 40
0.0
176
     1
 90
        0
176
     1
290
     0
176
     1
290
     1
176
     1
290
     1
176
     1
290
     0
176
     1
290
     0
176
     1
290
     0
176
     1
290
     0
176
     1
290
     0
176
     1
290
     0
176
     1
 90
       50
176
     1
 40
0.0
176
     1
 40
1.0
176
     1
 90
        0
176
     1
 62
    18
420
        0
176
     1
 90
       50
176
     1
 90
        3
176
     1
 62
     5
420
      255
176
     1
290
     0
176
     1
 90
       50
176
     1
 90
       50
176
     1
 90
       50
176
     1
290
     0
176
     1
 90
       50
176
     1
 62
   256
176
     0
 40
1.0
176
     0
 90
        2
176
     1
  1
strokes_ogs.tif
176
     1
290
     0
176
     1
 40
1.0
176
     1
 40
1.0
176
     1
  0
VISUALSTYLE
  5
2B
102
{ACAD_REACTORS
330
29
102
}
330
29
100
AcDbVisualStyle
  2
FlatWithEdges
 70
     1
177
     3
291
     1
 70
    58
 90
        2
176
     1
 90
        1
176
     1
 90
        1
176
     1
 90
        2
176
     1
 40
0.6
176
     1
 40
30.0
176
     1
 62
     7
420
 16777215
176
     1
 90
        1
176
     1
 90
        0
176
     1
 62
     7
176
     1
 62
   257
176
     1
 90
        1
176
     1
 90
        1
176
     1
 40
1.0
176
     1
 90
        0
176
     1
 62
   257
176
     1
 40
1.0
176
     1
 90
        1
176
     1
 90
        6
176
     1
 90
        2
176
     1
 62
     7
176
     1
 90
        5
176
     1
 90
        0
176
     1
 90
        0
176
     1
290
     0
176
     1
 90
       13
176
     1
 40
0.0
176
     1
 90
        0
176
     1
290
     0
176
     1
290
     1
176
     1
290
     1
176
     1
290
     0
176
     1
290
     0
176
     1
290
     0
176
     1
290
     0
176
     1
290
     0
176
     1
290
     0
176
     1
 90
       50
176
     1
 40
0.0
176
     1
 40
1.0
176
     1
 90
        0
176
     1
 62
    18
420
        0
176
     1
 90
       50
176
     1
 90
        3
176
     1
 62
     5
420
      255
176
     1
290
     0
176
     1
 90
       50
176
     1
 90
       50
176
     1
 90
       50
176
     1
290
     0
176
     1
 90
       50
176
     1
 62
   256
176
     0
 40
1.0
176
     0
 90
        2
176
     1
  1
strokes_ogs.tif
176
     1
290
     0
176
     1
 40
1.0
176
     1
 40
1.0
176
     1
  0
VISUALSTYLE
  5
2C
102
{ACAD_REACTORS
330
29
102
}
330
29
100
AcDbVisualStyle
  2
Gouraud
 70
     2
177
     3
291
     1
 70
    58
 90
        2
176
     1
 90
        2
176
     1
 90
        1
176
     1
 90
        2
176
     1
 40
0.6
176
     1
 40
30.0
176
     1
 62
     7
420
 16777215
176
     1
 90
        0
176
     1
 90
        0
176
     1
 62
     7
176
     1
 62
   257
176
     1
 90
        1
176
     1
 90
        1
176
     1
 40
1.0
176
     1
 90
        0
176
     1
 62
     7
176
     1
 40
1.0
176
     1
 90
        1
176
     1
 90
        6
176
     1
 90
        2
176
     1
 62
     7
176
     1
 90
        5
176
     1
 90
        0
176
     1
 90
        0
176
     1
290
     0
176
     1
 90
       13
176
     1
 40
0.0
176
     1
 90
        0
176
     1
290
     0
176
     1
290
     1
176
     1
290
     1
176
     1
290
     0
176
     1
290
     0
176
     1
290
     0
176
     1
290
     0
176
     1
290
     0
176
     1
290
     0
176
     1
 90
       50
176
     1
 40
0.0
176
     1
 40
1.0
176
     1
 90
        0
176
     1
 62
    18
420
        0
176
     1
 90
       50
176
     1
 90
        3
176
     1
 62
     5
420
      255
176
     1
290
     0
176
     1
 90
       50
176
     1
 90
       50
176
     1
 90
       50
176
     1
290
     0
176
     1
 90
       50
176
     1
 62
   256
176
     0
 40
1.0
176
     0
 90
        2
176
     1
  1
strokes_ogs.tif
176
     1
290
     0
176
     1
 40
1.0
176
     1
 40
1.0
176
     1
  0
VISUALSTYLE
  5
2D
102
{ACAD_REACTORS
330
29
102
}
330
29
100
AcDbVisualStyle
  2
GouraudWithEdges
 70
     3
177
     3
291
     1
 70
    58
 90
        2
176
     1
 90
        2
176
     1
 90
        1
176
     1
 90
        2
176
     1
 40
0.6
176
     1
 40
30.0
176
     1
 62
     7
420
 16777215
176
     1
 90
        1
176
     1
 90
        0
176
     1
 62
     7
176
     1
 62
   257
176
     1
 90
        1
176
     1
 90
        1
176
     1
 40
1.0
176
     1
 90
        0
176
     1
 62
   257
176
     1
 40
1.0
176
     1
 90
        1
176
     1
 90
        6
176
     1
 90
        2
176
     1
 62
     7
176
     1
 90
        5
176
     1
 90
        0
176
     1
 90
        0
176
     1
290
     0
176
     1
 90
       13
176
     1
 40
0.0
176
     1
 90
        0
176
     1
290
     0
176
     1
290
     1
176
     1
290
     1
176
     1
290
     0
176
     1
290
     0
176
     1
290
     0
176
     1
290
     0
176
     1
290
     0
176
     1
290
     0
176
     1
 90
       50
176
     1
 40
0.0
176
     1
 40
1.0
176
     1
 90
        0
176
     1
 62
    18
420
        0
176
     1
 90
       50
176
     1
 90
        3
176
     1
 62
     5
420
      255
176
     1
290
     0
176
     1
 90
       50
176
     1
 90
       50
176
     1
 90
       50
176
     1
290
     0
176
     1
 90
       50
176
     1
 62
   256
176
     0
 40
1.0
176
     0
 90
        2
176
     1
  1
strokes_ogs.tif
176
     1
290
     0
176
     1
 40
1.0
176
     1
 40
1.0
176
     1
  0
VISUALSTYLE
  5
31
102
{ACAD_REACTORS
330
29
102
}
330
29
100
AcDbVisualStyle
  2
Hidden
 70
     6
177
     3
291
     0
 70
    58
 90
        1
176
     1
 90
        2
176
     1
 90
        2
176
     1
 90
        0
176
     1
 40
0.6
176
     1
 40
30.0
176
     1
 62
     7
420
 16777215
176
     1
 90
        2
176
     1
 90
        2
176
     1
 62
     7
176
     1
 62
   257
176
     1
 90
        2
176
     1
 90
        1
176
     1
 40
40.0
176
     1
 90
        0
176
     1
 62
   257
176
     1
 40
1.0
176
     1
 90
        1
176
     1
 90
        6
176
     1
 90
        2
176
     1
 62
     7
176
     1
 90
        3
176
     1
 90
        0
176
     1
 90
        0
176
     1
290
     0
176
     1
 90
        1
176
     1
 40
0.0
176
     1
 90
        0
176
     1
290
     0
176
     1
290
     1
176
     1
290
     1
176
     1
290
     0
176
     1
290
     0
176
     1
290
     0
176
     1
290
     0
176
     1
290
     0
176
     1
290
     0
176
     1
 90
       50
176
     1
 40
0.0
176
     1
 40
1.0
176
     1
 90
        0
176
     1
 62
    18
420
        0
176
     1
 90
       50
176
     1
 90
        3
176
     1
 62
     5
420
      255
176
     1
290
     0
176
     1
 90
       50
176
     1
 90
       50
176
     1
 90
       50
176
     1
290
     0
176
     1
 90
       50
176
     1
 62
   256
176
     0
 40
1.0
176
     0
 90
        2
176
     1
  1
strokes_ogs.tif
176
     1
290
     0
176
     1
 40
1.0
176
     1
 40
1.0
176
     1
  0
VISUALSTYLE
  5
3F
102
{ACAD_REACTORS
330
29
102
}
330
29
100
AcDbVisualStyle
  2
JitterOff
 70
    20
177
     3
291
     1
 70
    58
 90
        2
176
     0
 90
        2
176
     0
 90
        0
176
     0
 90
        0
176
     0
 40
0.6
176
     0
 40
30.0
176
     0
 62
     7
420
 16777215
176
     0
 90
        1
176
     0
 90
        4
176
     0
 62
     7
176
     0
 62
   257
176
     0
 90
        1
176
     0
 90
        1
176
     0
 40
1.0
176
     0
 90
       10
176
     2
 62
     7
176
     0
 40
1.0
176
     0
 90
        1
176
     0
 90
        6
176
     0
 90
        2
176
     0
 62
     7
176
     0
 90
        5
176
     0
 90
        0
176
     0
 90
        0
176
     0
290
     0
176
     0
 90
        1
176
     0
 40
0.0
176
     0
 90
        0
176
     0
290
     0
176
     0
290
     1
176
     0
290
     1
176
     0
290
     0
176
     0
290
     0
176
     0
290
     0
176
     0
290
     0
176
     0
290
     0
176
     0
290
     0
176
     0
 90
       50
176
     0
 40
0.0
176
     0
 40
1.0
176
     0
 90
        0
176
     0
 62
    18
420
        0
176
     0
 90
       50
176
     0
 90
        3
176
     0
 62
     5
420
      255
176
     0
290
     0
176
     0
 90
       50
176
     0
 90
       50
176
     0
 90
       50
176
     0
290
     0
176
     0
 90
       50
176
     0
 62
   256
176
     0
 40
1.0
176
     0
 90
        2
176
     0
  1
strokes_ogs.tif
176
     0
290
     0
176
     0
 40
1.0
176
     0
 40
1.0
176
     0
  0
VISUALSTYLE
  5
37
102
{ACAD_REACTORS
330
29
102
}
330
29
100
AcDbVisualStyle
  2
Linepattern
 70
    14
177
     3
291
     1
 70
    58
 90
        2
176
     1
 90
        2
176
     1
 90
        0
176
     1
 90
        0
176
     1
 40
0.6
176
     1
 40
30.0
176
     1
 62
     7
420
 16777215
176
     1
 90
        1
176
     1
 90
        4
176
     1
 62
     7
176
     1
 62
   257
176
     1
 90
        7
176
     1
 90
        7
176
     1
 40
1.0
176
     1
 90
        8
176
     1
 62
     7
176
     1
 40
1.0
176
     1
 90
        1
176
     1
 90
        6
176
     1
 90
        2
176
     1
 62
     7
176
     1
 90
        5
176
     1
 90
        0
176
     1
 90
        0
176
     1
290
     0
176
     1
 90
        1
176
     1
 40
0.0
176
     1
 90
        0
176
     1
290
     0
176
     1
290
     1
176
     1
290
     1
176
     1
290
     0
176
     1
290
     0
176
     1
290
     0
176
     1
290
     0
176
     1
290
     0
176
     1
290
     0
176
     1
 90
       50
176
     1
 40
0.0
176
     1
 40
1.0
176
     1
 90
        0
176
     1
 62
    18
420
        0
176
     1
 90
       50
176
     1
 90
        3
176
     1
 62
     5
420
      255
176
     1
290
     0
176
     1
 90
       50
176
     1
 90
       50
176
     1
 90
       50
176
     1
290
     0
176
     1
 90
       50
176
     1
 62
   256
176
     0
 40
1.0
176
     0
 90
        2
176
     1
  1
strokes_ogs.tif
176
     1
290
     0
176
     1
 40
1.0
176
     1
 40
1.0
176
     1
  0
VISUALSTYLE
  5
40
102
{ACAD_REACTORS
330
29
102
}
330
29
100
AcDbVisualStyle
  2
OverhangOff
 70
    21
177
     3
291
     1
 70
    58
 90
        2
176
     0
 90
        2
176
     0
 90
        0
176
     0
 90
        0
176
     0
 40
0.6
176
     0
 40
30.0
176
     0
 62
     7
420
 16777215
176
     0
 90
        1
176
     0
 90
        4
176
     0
 62
     7
176
     0
 62
   257
176
     0
 90
        1
176
     0
 90
        1
176
     0
 40
1.0
176
     0
 90
        9
176
     2
 62
     7
176
     0
 40
1.0
176
     0
 90
        1
176
     0
 90
        6
176
     0
 90
        2
176
     0
 62
     7
176
     0
 90
        5
176
     0
 90
        0
176
     0
 90
        0
176
     0
290
     0
176
     0
 90
        1
176
     0
 40
0.0
176
     0
 90
        0
176
     0
290
     0
176
     0
290
     1
176
     0
290
     1
176
     0
290
     0
176
     0
290
     0
176
     0
290
     0
176
     0
290
     0
176
     0
290
     0
176
     0
290
     0
176
     0
 90
       50
176
     0
 40
0.0
176
     0
 40
1.0
176
     0
 90
        0
176
     0
 62
    18
420
        0
176
     0
 90
       50
176
     0
 90
        3
176
     0
 62
     5
420
      255
176
     0
290
     0
176
     0
 90
       50
176
     0
 90
       50
176
     0
 90
       50
176
     0
290
     0
176
     0
 90
       50
176
     0
 62
   256
176
     0
 40
1.0
176
     0
 90
        2
176
     0
  1
strokes_ogs.tif
176
     0
290
     0
176
     0
 40
1.0
176
     0
 40
1.0
176
     0
  0
VISUALSTYLE
  5
33
102
{ACAD_REACTORS
330
29
102
}
330
29
100
AcDbVisualStyle
  2
Realistic
 70
     8
177
     3
291
     0
 70
    58
 90
        2
176
     1
 90
        3
176
     1
 90
        0
176
     1
 90
        2
176
     1
 40
0.6
176
     1
 40
30.0
176
     1
 62
     7
420
 16777215
176
     1
 90
        0
176
     1
 90
        0
176
     1
 62
     7
176
     1
 62
   257
176
     1
 90
        1
176
     1
 90
        1
176
     1
 40
1.0
176
     1
 90
        8
176
     1
 62
   257
176
     1
 40
1.0
176
     1
 90
        1
176
     1
 90
        6
176
     1
 90
        2
176
     1
 62
     7
176
     1
 90
        3
176
     1
 90
        0
176
     1
 90
        0
176
     1
290
     0
176
     1
 90
       13
176
     1
 40
0.0
176
     1
 90
        0
176
     1
290
     0
176
     1
290
     1
176
     1
290
     1
176
     1
290
     0
176
     1
290
     0
176
     1
290
     0
176
     1
290
     0
176
     1
290
     0
176
     1
290
     0
176
     1
 90
       50
176
     1
 40
0.0
176
     1
 40
1.0
176
     1
 90
        0
176
     1
 62
    18
420
        0
176
     1
 90
       50
176
     1
 90
        3
176
     1
 62
     5
420
      255
176
     1
290
     0
176
     1
 90
       50
176
     1
 90
       50
176
     1
 90
       50
176
     1
290
     0
176
     1
 90
       50
176
     1
 62
   256
176
     0
 40
1.0
176
     0
 90
        2
176
     1
  1
strokes_ogs.tif
176
     1
290
     0
176
     1
 40
1.0
176
     1
 40
1.0
176
     1
  0
VISUALSTYLE
  5
3E
102
{ACAD_REACTORS
330
29
102
}
330
29
100
AcDbVisualStyle
  2
Shaded
 70
    27
177
     3
291
     0
 70
    58
 90
        2
176
     1
 90
        2
176
     1
 90
        1
176
     1
 90
        2
176
     1
 40
0.6
176
     1
 40
30.0
176
     1
 62
     7
420
 16777215
176
     1
 90
        0
176
     1
 90
        4
176
     1
 62
     7
176
     1
 62
   257
176
     1
 90
        1
176
     1
 90
        1
176
     1
 40
1.0
176
     1
 90
        8
176
     1
 62
   257
176
     1
 40
1.0
176
     1
 90
        1
176
     1
 90
        6
176
     1
 90
        2
176
     1
 62
     8
420
  7895160
176
     1
 90
        3
176
     1
 90
        0
176
     1
 90
        0
176
     1
290
     0
176
     1
 90
        5
176
     1
 40
0.0
176
     1
 90
        0
176
     1
290
     0
176
     1
290
     1
176
     1
290
     1
176
     1
290
     0
176
     1
290
     0
176
     1
290
     0
176
     1
290
     0
176
     1
290
     0
176
     1
290
     0
176
     1
 90
       50
176
     1
 40
0.0
176
     1
 40
1.0
176
     1
 90
        0
176
     1
 62
    18
420
        0
176
     1
 90
       50
176
     1
 90
        3
176
     1
 62
     5
420
      255
176
     1
290
     0
176
     1
 90
       50
176
     1
 90
       50
176
     1
 90
       50
176
     1
290
     0
176
     1
 90
       50
176
     1
 62
   256
176
     0
 40
1.0
176
     0
 90
        2
176
     1
  1
strokes_ogs.tif
176
     1
290
     0
176
     1
 40
1.0
176
     1
 40
1.0
176
     1
  0
VISUALSTYLE
  5
3D
102
{ACAD_REACTORS
330
29
102
}
330
29
100
AcDbVisualStyle
  2
Shaded with edges
 70
    26
177
     3
291
     0
 70
    58
 90
        2
176
     1
 90
        2
176
     1
 90
        1
176
     1
 90
        2
176
     1
 40
0.6
176
     1
 40
30.0
176
     1
 62
     7
420
 16777215
176
     1
 90
        1
176
     1
 90
        2
176
     1
 62
     7
176
     1
 62
   257
176
     1
 90
        2
176
     1
 90
        1
176
     1
 40
1.0
176
     1
 90
        8
176
     1
 62
   257
176
     1
 40
1.0
176
     1
 90
        1
176
     1
 90
        6
176
     1
 90
        2
176
     1
 62
     7
176
     1
 90
        3
176
     1
 90
        0
176
     1
 90
        0
176
     1
290
     0
176
     1
 90
        5
176
     1
 40
0.0
176
     1
 90
        0
176
     1
290
     0
176
     1
290
     1
176
     1
290
     1
176
     1
290
     0
176
     1
290
     0
176
     1
290
     0
176
     1
290
     0
176
     1
290
     0
176
     1
290
     0
176
     1
 90
       50
176
     1
 40
0.0
176
     1
 40
1.0
176
     1
 90
        0
176
     1
 62
    18
420
        0
176
     1
 90
       50
176
     1
 90
        3
176
     1
 62
     5
420
      255
176
     1
290
     0
176
     1
 90
       50
176
     1
 90
       50
176
     1
 90
       50
176
     1
290
     0
176
     1
 90
       50
176
     1
 62
   256
176
     0
 40
1.0
176
     0
 90
        2
176
     1
  1
strokes_ogs.tif
176
     1
290
     0
176
     1
 40
1.0
176
     1
 40
1.0
176
     1
  0
VISUALSTYLE
  5
3A
102
{ACAD_REACTORS
330
29
102
}
330
29
100
AcDbVisualStyle
  2
Shades of Gray
 70
    23
177
     3
291
     0
 70
    58
 90
        2
176
     1
 90
        2
176
     1
 90
        3
176
     1
 90
        0
176
     1
 40
0.6
176
     1
 40
30.0
176
     1
 62
     7
420
 16777215
176
     1
 90
        2
176
     1
 90
        2
176
     1
 62
     7
176
     1
 62
     7
176
     1
 90
        1
176
     1
 90
        1
176
     1
 40
40.0
176
     1
 90
        8
176
     1
 62
     7
176
     1
 40
1.0
176
     1
 90
        1
176
     1
 90
        6
176
     1
 90
        2
176
     1
 62
     7
176
     1
 90
        3
176
     1
 90
        0
176
     1
 90
        0
176
     1
290
     0
176
     1
 90
        1
176
     1
 40
0.0
176
     1
 90
        0
176
     1
290
     0
176
     1
290
     1
176
     1
290
     1
176
     1
290
     0
176
     1
290
     0
176
     1
290
     0
176
     1
290
     0
176
     1
290
     0
176
     1
290
     0
176
     1
 90
       50
176
     1
 40
0.0
176
     1
 40
1.0
176
     1
 90
        0
176
     1
 62
    18
420
        0
176
     1
 90
       50
176
     1
 90
        3
176
     1
 62
     5
420
      255
176
     1
290
     0
176
     1
 90
       50
176
     1
 90
       50
176
     1
 90
       50
176
     1
290
     0
176
     1
 90
       50
176
     1
 62
   256
176
     0
 40
1.0
176
     0
 90
        2
176
     1
  1
strokes_ogs.tif
176
     1
290
     0
176
     1
 40
1.0
176
     1
 40
1.0
176
     1
  0
VISUALSTYLE
  5
3B
102
{ACAD_REACTORS
330
29
102
}
330
29
100
AcDbVisualStyle
  2
Sketchy
 70
    24
177
     3
291
     0
 70
    58
 90
        1
176
     1
 90
        2
176
     1
 90
        2
176
     1
 90
        0
176
     1
 40
0.6
176
     1
 40
30.0
176
     1
 62
     7
420
 16777215
176
     1
 90
        2
176
     1
 90
        2
176
     1
 62
     7
176
     1
 62
     7
176
     1
 90
        1
176
     1
 90
        1
176
     1
 40
40.0
176
     1
 90
       11
176
     1
 62
     7
176
     1
 40
1.0
176
     1
 90
        1
176
     1
 90
        6
176
     1
 90
        2
176
     1
 62
     7
176
     1
 90
        6
176
     1
 90
        0
176
     1
 90
        0
176
     1
290
     0
176
     1
 90
        1
176
     1
 40
0.0
176
     1
 90
        0
176
     1
290
     0
176
     1
290
     1
176
     1
290
     1
176
     1
290
     0
176
     1
290
     0
176
     1
290
     0
176
     1
290
     0
176
     1
290
     0
176
     1
290
     0
176
     1
 90
       50
176
     1
 40
0.0
176
     1
 40
1.0
176
     1
 90
        0
176
     1
 62
    18
420
        0
176
     1
 90
       50
176
     1
 90
        3
176
     1
 62
     5
420
      255
176
     1
290
     0
176
     1
 90
       50
176
     1
 90
       50
176
     1
 90
       50
176
     1
290
     0
176
     1
 90
       50
176
     1
 62
   256
176
     0
 40
1.0
176
     0
 90
        2
176
     1
  1
strokes_ogs.tif
176
     1
290
     0
176
     1
 40
1.0
176
     1
 40
1.0
176
     1
  0
VISUALSTYLE
  5
36
102
{ACAD_REACTORS
330
29
102
}
330
29
100
AcDbVisualStyle
  2
Thicken
 70
    13
177
     3
291
     1
 70
    58
 90
        2
176
     1
 90
        2
176
     1
 90
        0
176
     1
 90
        0
176
     1
 40
0.6
176
     1
 40
30.0
176
     1
 62
     7
420
 16777215
176
     1
 90
        1
176
     1
 90
        4
176
     1
 62
     7
176
     1
 62
   257
176
     1
 90
        1
176
     1
 90
        1
176
     1
 40
1.0
176
     1
 90
       12
176
     1
 62
     7
176
     1
 40
1.0
176
     1
 90
        1
176
     1
 90
        6
176
     1
 90
        2
176
     1
 62
     7
176
     1
 90
        5
176
     1
 90
        0
176
     1
 90
        0
176
     1
290
     0
176
     1
 90
        1
176
     1
 40
0.0
176
     1
 90
        0
176
     1
290
     0
176
     1
290
     1
176
     1
290
     1
176
     1
290
     0
176
     1
290
     0
176
     1
290
     0
176
     1
290
     0
176
     1
290
     0
176
     1
290
     0
176
     1
 90
       50
176
     1
 40
0.0
176
     1
 40
1.0
176
     1
 90
        0
176
     1
 62
    18
420
        0
176
     1
 90
       50
176
     1
 90
        3
176
     1
 62
     5
420
      255
176
     1
290
     0
176
     1
 90
       50
176
     1
 90
       50
176
     1
 90
       50
176
     1
290
     0
176
     1
 90
       50
176
     1
 62
   256
176
     0
 40
1.0
176
     0
 90
        2
176
     1
  1
strokes_ogs.tif
176
     1
290
     0
176
     1
 40
1.0
176
     1
 40
1.0
176
     1
  0
VISUALSTYLE
  5
30
102
{ACAD_REACTORS
330
29
102
}
330
29
100
AcDbVisualStyle
  2
Wireframe
 70
     5
177
     3
291
     0
 70
    58
 90
        0
176
     1
 90
        2
176
     1
 90
        0
176
     1
 90
        0
176
     1
 40
0.6
176
     1
 40
30.0
176
     1
 62
     7
420
 16777215
176
     1
 90
        1
176
     1
 90
        4
176
     1
 62
     7
176
     1
 62
   257
176
     1
 90
        1
176
     1
 90
        1
176
     1
 40
1.0
176
     1
 90
        0
176
     1
 62
   257
176
     1
 40
1.0
176
     1
 90
        1
176
     1
 90
        6
176
     1
 90
        2
176
     1
 62
     7
176
     1
 90
        3
176
     1
 90
        0
176
     1
 90
        0
176
     1
290
     0
176
     1
 90
        1
176
     1
 40
0.0
176
     1
 90
        0
176
     1
290
     0
176
     1
290
     1
176
     1
290
     1
176
     1
290
     0
176
     1
290
     0
176
     1
290
     0
176
     1
290
     0
176
     1
290
     0
176
     1
290
     0
176
     1
 90
       50
176
     1
 40
0.0
176
     1
 40
1.0
176
     1
 90
        0
176
     1
 62
    18
420
        0
176
     1
 90
       50
176
     1
 90
        3
176
     1
 62
     5
420
      255
176
     1
290
     0
176
     1
 90
       50
176
     1
 90
       50
176
     1
 90
       50
176
     1
290
     0
176
     1
 90
       50
176
     1
 62
   256
176
     0
 40
1.0
176
     0
 90
        2
176
     1
  1
strokes_ogs.tif
176
     1
290
     0
176
     1
 40
1.0
176
     1
 40
1.0
176
     1
  0
VISUALSTYLE
  5
3C
102
{ACAD_REACTORS
330
29
102
}
330
29
100
AcDbVisualStyle
  2
X-Ray
 70
    25
177
     3
291
     0
 70
    58
 90
        2
176
     1
 90
        2
176
     1
 90
        1
176
     1
 90
        1
176
     1
 40
0.5
176
     1
 40
30.0
176
     1
 62
     7
420
 16777215
176
     1
 90
        1
176
     1
 90
        0
176
     1
 62
     7
176
     1
 62
   257
176
     1
 90
        1
176
     1
 90
        1
176
     1
 40
1.0
176
     1
 90
        8
176
     1
 62
     7
176
     1
 40
1.0
176
     1
 90
        1
176
     1
 90
        6
176
     1
 90
        2
176
     1
 62
     7
176
     1
 90
        3
176
     1
 90
        0
176
     1
 90
        0
176
     1
290
     0
176
     1
 90
       13
176
     1
 40
0.0
176
     1
 90
        0
176
     1
290
     0
176
     1
290
     1
176
     1
290
     1
176
     1
290
     0
176
     1
290
     0
176
     1
290
     0
176
     1
290
     0
176
     1
290
     0
176
     1
290
     0
176
     1
 90
       50
176
     1
 40
0.0
176
     1
 40
1.0
176
     1
 90
        0
176
     1
 62
    18
420
        0
176
     1
 90
       50
176
     1
 90
        3
176
     1
 62
     5
420
      255
176
     1
290
     0
176
     1
 90
       50
176
     1
 90
       50
176
     1
 90
       50
176
     1
290
     0
176
     1
 90
       50
176
     1
 62
   256
176
     0
 40
1.0
176
     0
 90
        2
176
     1
  1
strokes_ogs.tif
176
     1
290
     0
176
     1
 40
1.0
176
     1
 40
1.0
176
     1
  0
DICTIONARYVAR
  5
183
102
{ACAD_REACTORS
330
17E
102
}
330
17E
100
DictionaryVariables
280
     0
  1
1:1
  0
DICTIONARYVAR
  5
180
102
{ACAD_REACTORS
330
17E
102
}
330
17E
100
DictionaryVariables
280
     0
  1
STANDARD
  0
DICTIONARYVAR
  5
17F
102
{ACAD_REACTORS
330
17E
102
}
330
17E
100
DictionaryVariables
280
     0
  1
STANDARD
  0
DICTIONARYVAR
  5
181
102
{ACAD_REACTORS
330
17E
102
}
330
17E
100
DictionaryVariables
280
     0
  1
Imperial24
  0
DICTIONARYVAR
  5
182
102
{ACAD_REACTORS
330
17E
102
}
330
17E
100
DictionaryVariables
280
     0
  1
Imperial24
  0
DICTIONARY
  5
1A
330
19
100
AcDbDictionary
280
     1
281
     1
  3
BUMPTILE
360
1C
  3
DIFFUSETILE
360
1B
  3
OPACITYTILE
360
1F
  3
REFLECTIONTILE
360
1E
  3
REFRACTIONTILE
360
20
  3
SPECULARTILE
360
1D
  0
DICTIONARY
  5
12
330
11
100
AcDbDictionary
280
     1
281
     1
  3
BUMPTILE
360
14
  3
DIFFUSETILE
360
13
  3
OPACITYTILE
360
17
  3
REFLECTIONTILE
360
16
  3
REFRACTIONTILE
360
18
  3
SPECULARTILE
360
15
  0
DICTIONARY
  5
22
330
21
100
AcDbDictionary
280
     1
281
     1
  3
BUMPTILE
360
24
  3
DIFFUSETILE
360
23
  3
OPACITYTILE
360
27
  3
REFLECTIONTILE
360
26
  3
REFRACTIONTILE
360
28
  3
SPECULARTILE
360
25
  0
DICTIONARY
  5
184
330
65
100
AcDbDictionary
280
     1
281
     1
  3
ACAD_ROUNDTRIP_2008_TABLESTYLE_CELLSTYLEMAP
360
185
  0
XRECORD
  5
1C
102
{ACAD_REACTORS
330
1A
102
}
330
1A
100
AcDbXrecord
280
     1
270
     1
271
     1
  0
XRECORD
  5
1B
102
{ACAD_REACTORS
330
1A
102
}
330
1A
100
AcDbXrecord
280
     1
270
     1
271
     1
  0
XRECORD
  5
1F
102
{ACAD_REACTORS
330
1A
102
}
330
1A
100
AcDbXrecord
280
     1
270
     1
271
     1
  0
XRECORD
  5
1E
102
{ACAD_REACTORS
330
1A
102
}
330
1A
100
AcDbXrecord
280
     1
270
     1
271
     1
  0
XRECORD
  5
20
102
{ACAD_REACTORS
330
1A
102
}
330
1A
100
AcDbXrecord
280
     1
270
     1
271
     1
  0
XRECORD
  5
1D
102
{ACAD_REACTORS
330
1A
102
}
330
1A
100
AcDbXrecord
280
     1
270
     1
271
     1
  0
XRECORD
  5
14
102
{ACAD_REACTORS
330
12
102
}
330
12
100
AcDbXrecord
280
     1
270
     1
271
     1
  0
XRECORD
  5
13
102
{ACAD_REACTORS
330
12
102
}
330
12
100
AcDbXrecord
280
     1
270
     1
271
     1
  0
XRECORD
  5
17
102
{ACAD_REACTORS
330
12
102
}
330
12
100
AcDbXrecord
280
     1
270
     1
271
     1
  0
XRECORD
  5
16
102
{ACAD_REACTORS
330
12
102
}
330
12
100
AcDbXrecord
280
     1
270
     1
271
     1
  0
XRECORD
  5
18
102
{ACAD_REACTORS
330
12
102
}
330
12
100
AcDbXrecord
280
     1
270
     1
271
     1
  0
XRECORD
  5
15
102
{ACAD_REACTORS
330
12
102
}
330
12
100
AcDbXrecord
280
     1
270
     1
271
     1
  0
XRECORD
  5
24
102
{ACAD_REACTORS
330
22
102
}
330
22
100
AcDbXrecord
280
     1
270
     1
271
     1
  0
XRECORD
  5
23
102
{ACAD_REACTORS
330
22
102
}
330
22
100
AcDbXrecord
280
     1
270
     1
271
     1
  0
XRECORD
  5
27
102
{ACAD_REACTORS
330
22
102
}
330
22
100
AcDbXrecord
280
     1
270
     1
271
     1
  0
XRECORD
  5
26
102
{ACAD_REACTORS
330
22
102
}
330
22
100
AcDbXrecord
280
     1
270
     1
271
     1
  0
XRECORD
  5
28
102
{ACAD_REACTORS
330
22
102
}
330
22
100
AcDbXrecord
280
     1
270
     1
271
     1
  0
XRECORD
  5
25
102
{ACAD_REACTORS
330
22
102
}
330
22
100
AcDbXrecord
280
     1
270
     1
271
     1
  0
CELLSTYLEMAP
  5
185
102
{ACAD_REACTORS
330
184
102
}
330
184
100
AcDbCellStyleMap
 90
        3
300
CELLSTYLE
  1
TABLEFORMAT_BEGIN
 90
        5
170
     1
 91
        0
 92
    32768
 62
   257
 93
        1
300
CONTENTFORMAT
  1
CONTENTFORMAT_BEGIN
 90
        0
 91
        0
 92
      512
 93
        0
300

 40
0.0
140
1.0
 94
        5
 62
     0
340
55
144
0.25
309
CONTENTFORMAT_END
171
     0
 94
        0
309
TABLEFORMAT_END
  1
CELLSTYLE_BEGIN
 90
        1
 91
        1
300
_TITLE
309
CELLSTYLE_END
300
CELLSTYLE
  1
TABLEFORMAT_BEGIN
 90
        5
170
     1
 91
        0
 92
        0
 62
   257
 93
        1
300
CONTENTFORMAT
  1
CONTENTFORMAT_BEGIN
 90
        0
 91
        0
 92
      512
 93
        0
300

 40
0.0
140
1.0
 94
        5
 62
     0
340
55
144
0.18
309
CONTENTFORMAT_END
171
     0
 94
        0
309
TABLEFORMAT_END
  1
CELLSTYLE_BEGIN
 90
        2
 91
        1
300
_HEADER
309
CELLSTYLE_END
300
CELLSTYLE
  1
TABLEFORMAT_BEGIN
 90
        5
170
     1
 91
        0
 92
        0
 62
   257
 93
        1
300
CONTENTFORMAT
  1
CONTENTFORMAT_BEGIN
 90
        0
 91
        0
 92
      512
 93
        0
300

 40
0.0
140
1.0
 94
        2
 62
     0
340
55
144
0.18
309
CONTENTFORMAT_END
171
     0
 94
        0
309
TABLEFORMAT_END
  1
CELLSTYLE_BEGIN
 90
        3
 91
        2
300
_DATA
309
CELLSTYLE_END
  0
ENDSEC
  0
EOF
