  0
SECTION
  2
HEADER
  9
$ACADVER
  1
AC1024
  9
$ACADMAINTVER
 70
     6
  9
$DWGCODEPAGE
  3
UNDEFINED
  9
$INSBASE
 10
0.0
 20
0.0
 30
0.0
  9
$EXTMIN
 10
1.000000000000000E+20
 20
1.000000000000000E+20
 30
1.000000000000000E+20
  9
$EXTMAX
 10
-1.000000000000000E+20
 20
-1.000000000000000E+20
 30
-1.000000000000000E+20
  9
$LIMMIN
 10
0.0
 20
0.0
  9
$LIMMAX
 10
12.0
 20
9.0
  9
$ORTHOMODE
 70
     0
  9
$REGENMODE
 70
     1
  9
$FILLMODE
 70
     1
  9
$QTEXTMODE
 70
     0
  9
$MIRRTEXT
 70
     1
  9
$LTSCALE
 40
1.0
  9
$ATTMODE
 70
     1
  9
$TEXTSIZE
 40
0.2
  9
$TRACEWID
 40
0.05
  9
$TEXTSTYLE
  7
Standard
  9
$CLAYER
  8
0
  9
$CELTYPE
  6
ByLayer
  9
$CECOLOR
 62
   256
  9
$CELTSCALE
 40
1.0
  9
$DISPSILH
 70
     0
  9
$DIMSCALE
 40
1.0
  9
$DIMASZ
 40
0.18
  9
$DIMEXO
 40
0.0625
  9
$DIMDLI
 40
0.38
  9
$DIMRND
 40
0.0
  9
$DIMDLE
 40
0.0
  9
$DIMEXE
 40
0.18
  9
$DIMTP
 40
0.0
  9
$DIMTM
 40
0.0
  9
$DIMTXT
 40
0.18
  9
$DIMCEN
 40
0.09
  9
$DIMTSZ
 40
0.0
  9
$DIMTOL
 70
     0
  9
$DIMLIM
 70
     0
  9
$DIMTIH
 70
     1
  9
$DIMTOH
 70
     1
  9
$DIMSE1
 70
     0
  9
$DIMSE2
 70
     0
  9
$DIMTAD
 70
     0
  9
$DIMZIN
 70
     0
  9
$DIMBLK
  1

  9
$DIMASO
 70
     1
  9
$DIMSHO
 70
     1
  9
$DIMPOST
  1

  9
$DIMAPOST
  1

  9
$DIMALT
 70
     0
  9
$DIMALTD
 70
     2
  9
$DIMALTF
 40
25.4
  9
$DIMLFAC
 40
1.0
  9
$DIMTOFL
 70
     0
  9
$DIMTVP
 40
0.0
  9
$DIMTIX
 70
     0
  9
$DIMSOXD
 70
     0
  9
$DIMSAH
 70
     0
  9
$DIMBLK1
  1

  9
$DIMBLK2
  1

  9
$DIMSTYLE
  2
Standard
  9
$DIMCLRD
 70
     0
  9
$DIMCLRE
 70
     0
  9
$DIMCLRT
 70
     0
  9
$DIMTFAC
 40
1.0
  9
$DIMGAP
 40
0.09
  9
$DIMJUST
 70
     0
  9
$DIMSD1
 70
     0
  9
$DIMSD2
 70
     0
  9
$DIMTOLJ
 70
     1
  9
$DIMTZIN
 70
     0
  9
$DIMALTZ
 70
     0
  9
$DIMALTTZ
 70
     0
  9
$DIMUPT
 70
     0
  9
$DIMDEC
 70
     4
  9
$DIMTDEC
 70
     4
  9
$DIMALTU
 70
     2
  9
$DIMALTTD
 70
     2
  9
$DIMTXSTY
  7
Standard
  9
$DIMAUNIT
 70
     0
  9
$DIMADEC
 70
     0
  9
$DIMALTRND
 40
0.0
  9
$DIMAZIN
 70
     0
  9
$DIMDSEP
 70
    46
  9
$DIMATFIT
 70
     3
  9
$DIMFRAC
 70
     0
  9
$DIMLDRBLK
  1

  9
$DIMLUNIT
 70
     2
  9
$DIMLWD
 70
    -2
  9
$DIMLWE
 70
    -2
  9
$DIMTMOVE
 70
     0
  9
$DIMFXL
 40
1.0
  9
$DIMFXLON
 70
     0
  9
$DIMJOGANG
 40
0.7853981633974483
  9
$DIMTFILL
 70
     0
  9
$DIMTFILLCLR
 70
     0
  9
$DIMARCSYM
 70
     0
  9
$DIMLTYPE
  6

  9
$DIMLTEX1
  6

  9
$DIMLTEX2
  6

  9
$DIMTXTDIRECTION
 70
     0
  9
$LUNITS
 70
     2
  9
$LUPREC
 70
     4
  9
$SKETCHINC
 40
0.1
  9
$FILLETRAD
 40
0.5
  9
$AUNITS
 70
     0
  9
$AUPREC
 70
     0
  9
$MENU
  1
.
  9
$ELEVATION
 40
0.0
  9
$PELEVATION
 40
0.0
  9
$THICKNESS
 40
0.0
  9
$LIMCHECK
 70
     0
  9
$CHAMFERA
 40
0.5
  9
$CHAMFERB
 40
0.5
  9
$CHAMFERC
 40
1.0
  9
$CHAMFERD
 40
0.0
  9
$SKPOLY
 70
     0
  9
$TDCREATE
 40
2456764.4686111
  9
$TDUCREATE
 40
2456764.593611111
  9
$TDUPDATE
 40
2456764.4686111
  9
$TDUUPDATE
 40
2456764.593611111
  9
$TDINDWG
 40
0.0000000116
  9
$TDUSRTIMER
 40
0.0000000116
  9
$USRTIMER
 70
     1
  9
$ANGBASE
 50
0.0
  9
$ANGDIR
 70
     0
  9
$PDMODE
 70
     0
  9
$PDSIZE
 40
0.0
  9
$PLINEWID
 40
0.0
  9
$SPLFRAME
 70
     0
  9
$SPLINETYPE
 70
     6
  9
$SPLINESEGS
 70
     8
  9
$HANDSEED
  5
351
  9
$SURFTAB1
 70
     6
  9
$SURFTAB2
 70
     6
  9
$SURFTYPE
 70
     6
  9
$SURFU
 70
     6
  9
$SURFV
 70
     6
  9
$UCSBASE
  2

  9
$UCSNAME
  2

  9
$UCSORG
 10
0.0
 20
0.0
 30
0.0
  9
$UCSXDIR
 10
1.0
 20
0.0
 30
0.0
  9
$UCSYDIR
 10
0.0
 20
1.0
 30
0.0
  9
$UCSORTHOREF
  2

  9
$UCSORTHOVIEW
 70
     0
  9
$UCSORGTOP
 10
0.0
 20
0.0
 30
0.0
  9
$UCSORGBOTTOM
 10
0.0
 20
0.0
 30
0.0
  9
$UCSORGLEFT
 10
0.0
 20
0.0
 30
0.0
  9
$UCSORGRIGHT
 10
0.0
 20
0.0
 30
0.0
  9
$UCSORGFRONT
 10
0.0
 20
0.0
 30
0.0
  9
$UCSORGBACK
 10
0.0
 20
0.0
 30
0.0
  9
$PUCSBASE
  2

  9
$PUCSNAME
  2

  9
$PUCSORG
 10
0.0
 20
0.0
 30
0.0
  9
$PUCSXDIR
 10
1.0
 20
0.0
 30
0.0
  9
$PUCSYDIR
 10
0.0
 20
1.0
 30
0.0
  9
$PUCSORTHOREF
  2

  9
$PUCSORTHOVIEW
 70
     0
  9
$PUCSORGTOP
 10
0.0
 20
0.0
 30
0.0
  9
$PUCSORGBOTTOM
 10
0.0
 20
0.0
 30
0.0
  9
$PUCSORGLEFT
 10
0.0
 20
0.0
 30
0.0
  9
$PUCSORGRIGHT
 10
0.0
 20
0.0
 30
0.0
  9
$PUCSORGFRONT
 10
0.0
 20
0.0
 30
0.0
  9
$PUCSORGBACK
 10
0.0
 20
0.0
 30
0.0
  9
$USERI1
 70
     0
  9
$USERI2
 70
     0
  9
$USERI3
 70
     0
  9
$USERI4
 70
     0
  9
$USERI5
 70
     0
  9
$USERR1
 40
0.0
  9
$USERR2
 40
0.0
  9
$USERR3
 40
0.0
  9
$USERR4
 40
0.0
  9
$USERR5
 40
0.0
  9
$WORLDVIEW
 70
     1
  9
$SHADEDGE
 70
     3
  9
$SHADEDIF
 70
    70
  9
$TILEMODE
 70
     1
  9
$MAXACTVP
 70
    64
  9
$PINSBASE
 10
0.0
 20
0.0
 30
0.0
  9
$PLIMCHECK
 70
     0
  9
$PEXTMIN
 10
1.000000000000000E+20
 20
1.000000000000000E+20
 30
1.000000000000000E+20
  9
$PEXTMAX
 10
-1.000000000000000E+20
 20
-1.000000000000000E+20
 30
-1.000000000000000E+20
  9
$PLIMMIN
 10
0.0
 20
0.0
  9
$PLIMMAX
 10
12.0
 20
9.0
  9
$UNITMODE
 70
     0
  9
$VISRETAIN
 70
     1
  9
$PLINEGEN
 70
     0
  9
$PSLTSCALE
 70
     1
  9
$TREEDEPTH
 70
  3020
  9
$CMLSTYLE
  2
Standard
  9
$CMLJUST
 70
     0
  9
$CMLSCALE
 40
1.0
  9
$PROXYGRAPHICS
 70
     1
  9
$MEASUREMENT
 70
     0
  9
$CELWEIGHT
370
    -1
  9
$ENDCAPS
280
     0
  9
$JOINSTYLE
280
     0
  9
$LWDISPLAY
290
     1
  9
$INSUNITS
 70
     1
  9
$HYPERLINKBASE
  1

  9
$STYLESHEET
  1

  9
$XEDIT
290
     1
  9
$CEPSNTYPE
380
     0
  9
$PSTYLEMODE
290
     1
  9
$FINGERPRINTGUID
  2
{94F242A1-C253-69B3-6F6C-F37F58C0EC42}
  9
$VERSIONGUID
  2
{FAEB1C32-E019-11D5-929B-00C0DF256EC4}
  9
$EXTNAMES
290
     1
  9
$PSVPSCALE
 40
0.0
  9
$OLESTARTUP
290
     0
  9
$SORTENTS
280
   127
  9
$INDEXCTL
280
     0
  9
$HIDETEXT
280
     1
  9
$XCLIPFRAME
280
     2
  9
$HALOGAP
280
     0
  9
$OBSCOLOR
 70
   257
  9
$OBSLTYPE
280
     0
  9
$INTERSECTIONDISPLAY
280
     0
  9
$INTERSECTIONCOLOR
 70
   257
  9
$DIMASSOC
280
     2
  9
$PROJECTNAME
  1

  9
$CAMERADISPLAY
290
     0
  9
$LENSLENGTH
 40
50.0
  9
$CAMERAHEIGHT
 40
0.0
  9
$STEPSPERSEC
 40
2.0
  9
$STEPSIZE
 40
6.0
  9
$3DDWFPREC
 40
2.0
  9
$PSOLWIDTH
 40
0.25
  9
$PSOLHEIGHT
 40
4.0
  9
$LOFTANG1
 40
1.570796326794897
  9
$LOFTANG2
 40
1.570796326794897
  9
$LOFTMAG1
 40
0.0
  9
$LOFTMAG2
 40
0.0
  9
$LOFTPARAM
 70
     7
  9
$LOFTNORMALS
280
     1
  9
$LATITUDE
 40
37.795
  9
$LONGITUDE
 40
-122.394
  9
$NORTHDIRECTION
 40
0.0
  9
$TIMEZONE
 70
 -8000
  9
$LIGHTGLYPHDISPLAY
280
     1
  9
$TILEMODELIGHTSYNCH
280
     1
  9
$CMATERIAL
347
3C
  9
$SOLIDHIST
280
     1
  9
$SHOWHIST
280
     1
  9
$DWFFRAME
280
     2
  9
$DGNFRAME
280
     2
  9
$REALWORLDSCALE
290
     1
  9
$INTERFERECOLOR
 62
   256
  9
$CSHADOW
280
     0
  9
$SHADOWPLANELOCATION
 40
0.0
  0
ENDSEC
  0
SECTION
  2
CLASSES
  0
CLASS
  1
ACDBDICTIONARYWDFLT
  2
AcDbDictionaryWithDefault
  3
ObjectDBX Classes
 90
        0
 91
        4
280
     0
281
     0
  0
CLASS
  1
VISUALSTYLE
  2
AcDbVisualStyle
  3
ObjectDBX Classes
 90
     4095
 91
        4
280
     0
281
     0
  0
CLASS
  1
MATERIAL
  2
AcDbMaterial
  3
ObjectDBX Classes
 90
     1153
 91
        4
280
     0
281
     0
  0
CLASS
  1
SUN
  2
AcDbSun
  3
SCENEOE
 90
     1024
 91
        4
280
     0
281
     0
  0
ENDSEC
  0
SECTION
  2
TABLES
  0
TABLE
  2
VPORT
  5
8
330
0
100
AcDbSymbolTable
 70
     1
  0
VPORT
  5
29
330
8
100
AcDbSymbolTableRecord
100
AcDbViewportTableRecord
  2
*Active
 70
     0
 10
0.0
 20
0.0
 11
1.0
 21
1.0
 12
0.0
 22
0.0
 13
0.0
 23
0.0
 14
0.5
 24
0.5
 15
0.5
 25
0.5
 16
0.0
 26
0.0
 36
1.0
 17
577.6761519830989
 27
134.8847064036804
 37
0.0
 40
1123.023240791994
 41
0.7843877627741033
 42
50.0
 43
0.0
 44
0.0
 50
0.0
 51
0.0
 71
     0
 72
   100
 73
     1
 74
     3
 75
     0
 76
     0
 77
     0
 78
     0
281
     0
 65
     1
110
0.0
120
0.0
130
0.0
111
1.0
121
0.0
131
0.0
112
0.0
122
1.0
132
0.0
 79
     0
146
0.0
 60
     3
 61
     5
292
     1
282
     1
141
0.0
142
0.0
 63
   250
361
3F
  0
ENDTAB
  0
TABLE
  2
LTYPE
  5
5
330
0
100
AcDbSymbolTable
 70
     1
  0
LTYPE
  5
14
330
5
100
AcDbSymbolTableRecord
100
AcDbLinetypeTableRecord
  2
ByBlock
 70
     0
  3

 72
    65
 73
     0
 40
0.0
  0
LTYPE
  5
15
330
5
100
AcDbSymbolTableRecord
100
AcDbLinetypeTableRecord
  2
ByLayer
 70
     0
  3

 72
    65
 73
     0
 40
0.0
  0
LTYPE
  5
16
330
5
100
AcDbSymbolTableRecord
100
AcDbLinetypeTableRecord
  2
Continuous
 70
     0
  3
Solid line
 72
    65
 73
     0
 40
0.0
  0
ENDTAB
  0
TABLE
  2
LAYER
  5
2
330
0
100
AcDbSymbolTable
 70
     2
  0
LAYER
  5
10
330
2
100
AcDbSymbolTableRecord
100
AcDbLayerTableRecord
  2
0
 70
     0
 62
     7
  6
Continuous
370
    -3
390
F
347
3E
  0
LAYER
  5
40
330
2
100
AcDbSymbolTableRecord
100
AcDbLayerTableRecord
  2
Camada 1
 70
     0
 62
     7
  6
Continuous
370
    -3
390
F
347
3E
  0
ENDTAB
  0
TABLE
  2
STYLE
  5
3
330
0
100
AcDbSymbolTable
 70
     1
  0
STYLE
  5
11
330
3
100
AcDbSymbolTableRecord
100
AcDbTextStyleTableRecord
  2
Standard
 70
     0
 40
0.0
 41
1.0
 50
0.0
 71
     0
 42
0.2
  3
txt
  4

  0
ENDTAB
  0
TABLE
  2
VIEW
  5
6
330
0
100
AcDbSymbolTable
 70
     0
  0
ENDTAB
  0
TABLE
  2
UCS
  5
7
330
0
100
AcDbSymbolTable
 70
     0
  0
ENDTAB
  0
TABLE
  2
APPID
  5
9
330
0
100
AcDbSymbolTable
 70
     1
  0
APPID
  5
12
330
9
100
AcDbSymbolTableRecord
100
AcDbRegAppTableRecord
  2
ACAD
 70
     0
  0
ENDTAB
  0
TABLE
  2
DIMSTYLE
  5
A
330
0
100
AcDbSymbolTable
 70
     1
100
AcDbDimStyleTable
  0
DIMSTYLE
105
27
330
A
100
AcDbSymbolTableRecord
100
AcDbDimStyleTableRecord
  2
Standard
 70
     0
178
     0
340
11
  0
ENDTAB
  0
TABLE
  2
BLOCK_RECORD
  5
1
330
0
100
AcDbSymbolTable
 70
     1
  0
BLOCK_RECORD
  5
1F
330
1
100
AcDbSymbolTableRecord
100
AcDbBlockTableRecord
  2
*Model_Space
340
22
 70
     0
280
     1
281
     0
  0
BLOCK_RECORD
  5
1B
330
1
100
AcDbSymbolTableRecord
100
AcDbBlockTableRecord
  2
*Paper_Space
340
1E
 70
     0
280
     1
281
     0
  0
BLOCK_RECORD
  5
23
330
1
100
AcDbSymbolTableRecord
100
AcDbBlockTableRecord
  2
*Paper_Space0
340
26
 70
     0
280
     1
281
     0
  0
ENDTAB
  0
ENDSEC
  0
SECTION
  2
BLOCKS
  0
BLOCK
  5
20
330
1F
100
AcDbEntity
  8
0
100
AcDbBlockBegin
  2
*Model_Space
 70
     0
 10
0.0
 20
0.0
 30
0.0
  3
*Model_Space
  1

  0
ENDBLK
  5
21
330
1F
100
AcDbEntity
  8
0
100
AcDbBlockEnd
  0
BLOCK
  5
1C
330
1B
100
AcDbEntity
 67
     1
  8
0
100
AcDbBlockBegin
  2
*Paper_Space
 70
     0
 10
0.0
 20
0.0
 30
0.0
  3
*Paper_Space
  1

  0
ENDBLK
  5
1D
330
1B
100
AcDbEntity
 67
     1
  8
0
100
AcDbBlockEnd
  0
BLOCK
  5
24
330
23
100
AcDbEntity
  8
0
100
AcDbBlockBegin
  2
*Paper_Space0
 70
     0
 10
0.0
 20
0.0
 30
0.0
  3
*Paper_Space0
  1

  0
ENDBLK
  5
25
330
23
100
AcDbEntity
  8
0
100
AcDbBlockEnd
  0
ENDSEC
  0
SECTION
  2
ENTITIES
  0
MTEXT
  5
41
330
1F
100
AcDbEntity
  8
Camada 1
 62
     7
420
 16777215
100
AcDbMText
 10
239.8934118624815
 20
607.3059430617424
 30
0.0
 40
44.03559434069602
 41
0.0
 46
0.0
 71
     7
 72
     1
  1
\fTimes New Roman|b0|i0|c0|p34;\W1;Quadrum 1.5 C
 73
     1
 44
1.0
  0
MTEXT
  5
42
330
1F
100
AcDbEntity
  8
Camada 1
 62
     7
420
 16777215
100
AcDbMText
 10
239.8934118624815
 20
562.8793697221545
 30
0.0
 40
30.40551681267043
 41
0.0
 46
0.0
 71
     7
 72
     1
  1
\fTimes New Roman|b0|i0|c0|p34;\W1;Ref.: 94008
 73
     1
 44
1.0
  0
MTEXT
  5
43
330
1F
100
AcDbEntity
  8
Camada 1
 62
     7
420
 16777215
100
AcDbMText
 10
572.1523730966911
 20
502.9012585548303
 30
0.0
 40
10.48466241549
 41
0.0
 46
0.0
 71
     7
 72
     1
  1
\fHelvetica Light|b0|i0|c0|p34;\W1;660
 73
     1
 44
1.0
  0
POLYLINE
  5
44
330
1F
100
AcDbEntity
  8
Camada 1
370
     0
100
AcDb2dPolyline
 66
     1
 10
0.0
 20
0.0
 30
0.0
  0
VERTEX
  5
45
330
44
100
AcDbEntity
  8
Camada 1
370
     0
100
AcDbVertex
100
AcDb2dVertex
 10
247.3507462083912
 20
497.8748783816069
 30
0.0
  0
VERTEX
  5
46
330
44
100
AcDbEntity
  8
Camada 1
370
     0
100
AcDbVertex
100
AcDb2dVertex
 10
253.3573132681625
 20
498.8759154102601
 30
0.0
  0
VERTEX
  5
47
330
44
100
AcDbEntity
  8
Camada 1
370
     0
100
AcDbVertex
100
AcDb2dVertex
 10
253.3573132681625
 20
496.8737551309835
 30
0.0
  0
VERTEX
  5
48
330
44
100
AcDbEntity
  8
Camada 1
370
     0
100
AcDbVertex
100
AcDb2dVertex
 10
247.3507462083912
 20
497.8748783816069
 30
0.0
  0
SEQEND
  5
4A
330
44
100
AcDbEntity
  8
Camada 1
370
     0
  0
HATCH
  5
49
330
1F
100
AcDbEntity
  8
Camada 1
 62
     7
420
 16777215
100
AcDbHatch
 10
0.0
 20
0.0
 30
0.0
210
0.0
220
0.0
230
1.0
  2
SOLID
 70
     1
 71
     0
 91
        1
 92
        1
 93
        3
 72
     1
 10
247.3507462083912
 20
497.8748783816069
 11
253.3573132681625
 21
498.8759154102601
 72
     1
 10
253.3573132681625
 20
498.8759154102601
 11
253.3573132681625
 21
496.8737551309835
 72
     1
 10
253.3573132681625
 20
496.8737551309835
 11
247.3507462083912
 21
497.8748783816069
 97
        0
 75
     2
 76
     1
 98
        0
  0
POLYLINE
  5
4B
330
1F
100
AcDbEntity
  8
Camada 1
 62
     7
420
 16777215
370
    18
100
AcDb2dPolyline
 66
     1
 10
0.0
 20
0.0
 30
0.0
  0
VERTEX
  5
4C
330
4B
100
AcDbEntity
  8
Camada 1
 62
     7
420
 16777215
370
    18
100
AcDbVertex
100
AcDb2dVertex
 10
247.3507462083912
 20
497.8748783816069
 30
0.0
  0
VERTEX
  5
4D
330
4B
100
AcDbEntity
  8
Camada 1
 62
     7
420
 16777215
370
    18
100
AcDbVertex
100
AcDb2dVertex
 10
253.3573132681625
 20
498.8759154102601
 30
0.0
  0
VERTEX
  5
4E
330
4B
100
AcDbEntity
  8
Camada 1
 62
     7
420
 16777215
370
    18
100
AcDbVertex
100
AcDb2dVertex
 10
253.3573132681625
 20
496.8737551309835
 30
0.0
  0
VERTEX
  5
4F
330
4B
100
AcDbEntity
  8
Camada 1
 62
     7
420
 16777215
370
    18
100
AcDbVertex
100
AcDb2dVertex
 10
247.3507462083912
 20
497.8748783816069
 30
0.0
  0
SEQEND
  5
50
330
4B
100
AcDbEntity
  8
Camada 1
 62
     7
420
 16777215
370
    18
  0
POLYLINE
  5
51
330
1F
100
AcDbEntity
  8
Camada 1
370
     0
100
AcDb2dPolyline
 66
     1
 10
0.0
 20
0.0
 30
0.0
  0
VERTEX
  5
52
330
51
100
AcDbEntity
  8
Camada 1
370
     0
100
AcDbVertex
100
AcDb2dVertex
 10
908.0754938872614
 20
497.8748783816069
 30
0.0
  0
VERTEX
  5
53
330
51
100
AcDbEntity
  8
Camada 1
370
     0
100
AcDbVertex
100
AcDb2dVertex
 10
902.0689268274913
 20
496.8737551309835
 30
0.0
  0
VERTEX
  5
54
330
51
100
AcDbEntity
  8
Camada 1
370
     0
100
AcDbVertex
100
AcDb2dVertex
 10
902.0689268274913
 20
498.8759154102601
 30
0.0
  0
VERTEX
  5
55
330
51
100
AcDbEntity
  8
Camada 1
370
     0
100
AcDbVertex
100
AcDb2dVertex
 10
908.0754938872614
 20
497.8748783816069
 30
0.0
  0
SEQEND
  5
57
330
51
100
AcDbEntity
  8
Camada 1
370
     0
  0
HATCH
  5
56
330
1F
100
AcDbEntity
  8
Camada 1
 62
     7
420
 16777215
100
AcDbHatch
 10
0.0
 20
0.0
 30
0.0
210
0.0
220
0.0
230
1.0
  2
SOLID
 70
     1
 71
     0
 91
        1
 92
        1
 93
        3
 72
     1
 10
908.0754938872614
 20
497.8748783816069
 11
902.0689268274913
 21
496.8737551309835
 72
     1
 10
902.0689268274913
 20
496.8737551309835
 11
902.0689268274913
 21
498.8759154102601
 72
     1
 10
902.0689268274913
 20
498.8759154102601
 11
908.0754938872614
 21
497.8748783816069
 97
        0
 75
     2
 76
     1
 98
        0
  0
POLYLINE
  5
58
330
1F
100
AcDbEntity
  8
Camada 1
 62
     7
420
 16777215
370
    18
100
AcDb2dPolyline
 66
     1
 10
0.0
 20
0.0
 30
0.0
  0
VERTEX
  5
59
330
58
100
AcDbEntity
  8
Camada 1
 62
     7
420
 16777215
370
    18
100
AcDbVertex
100
AcDb2dVertex
 10
908.0754938872614
 20
497.8748783816069
 30
0.0
  0
VERTEX
  5
5A
330
58
100
AcDbEntity
  8
Camada 1
 62
     7
420
 16777215
370
    18
100
AcDbVertex
100
AcDb2dVertex
 10
902.0689268274913
 20
496.8737551309835
 30
0.0
  0
VERTEX
  5
5B
330
58
100
AcDbEntity
  8
Camada 1
 62
     7
420
 16777215
370
    18
100
AcDbVertex
100
AcDb2dVertex
 10
902.0689268274913
 20
498.8759154102601
 30
0.0
  0
VERTEX
  5
5C
330
58
100
AcDbEntity
  8
Camada 1
 62
     7
420
 16777215
370
    18
100
AcDbVertex
100
AcDb2dVertex
 10
908.0754938872614
 20
497.8748783816069
 30
0.0
  0
SEQEND
  5
5D
330
58
100
AcDbEntity
  8
Camada 1
 62
     7
420
 16777215
370
    18
  0
MTEXT
  5
5E
330
1F
100
AcDbEntity
  8
Camada 1
 62
     7
420
 16777215
100
AcDbMText
 10
192.1822844872565
 20
219.5834960388541
 30
0.0
 40
10.48466241549
 41
0.0
 46
0.0
 71
     7
 72
     1
  1
\fHelvetica Light|b0|i0|c0|p34;\W1;460
 11
6.123233995736766E-17
 21
1.0
 31
0.0
 73
     1
 44
1.0
  0
POLYLINE
  5
5F
330
1F
100
AcDbEntity
  8
Camada 1
370
     0
100
AcDb2dPolyline
 66
     1
 10
0.0
 20
0.0
 30
0.0
  0
VERTEX
  5
60
330
5F
100
AcDbEntity
  8
Camada 1
370
     0
100
AcDbVertex
100
AcDb2dVertex
 10
199.2980372862992
 20
449.822169459507
 30
0.0
  0
VERTEX
  5
61
330
5F
100
AcDbEntity
  8
Camada 1
370
     0
100
AcDbVertex
100
AcDb2dVertex
 10
200.2991174259272
 20
443.8155161777589
 30
0.0
  0
VERTEX
  5
62
330
5F
100
AcDbEntity
  8
Camada 1
370
     0
100
AcDbVertex
100
AcDb2dVertex
 10
198.2969140356741
 20
443.8155161777589
 30
0.0
  0
VERTEX
  5
63
330
5F
100
AcDbEntity
  8
Camada 1
370
     0
100
AcDbVertex
100
AcDb2dVertex
 10
199.2980372862992
 20
449.822169459507
 30
0.0
  0
SEQEND
  5
65
330
5F
100
AcDbEntity
  8
Camada 1
370
     0
  0
HATCH
  5
64
330
1F
100
AcDbEntity
  8
Camada 1
 62
     7
420
 16777215
100
AcDbHatch
 10
0.0
 20
0.0
 30
0.0
210
0.0
220
0.0
230
1.0
  2
SOLID
 70
     1
 71
     0
 91
        1
 92
        1
 93
        3
 72
     1
 10
199.2980372862992
 20
449.822169459507
 11
200.2991174259272
 21
443.8155161777589
 72
     1
 10
200.2991174259272
 20
443.8155161777589
 11
198.2969140356741
 21
443.8155161777589
 72
     1
 10
198.2969140356741
 20
443.8155161777589
 11
199.2980372862992
 21
449.822169459507
 97
        0
 75
     2
 76
     1
 98
        0
  0
POLYLINE
  5
66
330
1F
100
AcDbEntity
  8
Camada 1
 62
     7
420
 16777215
370
    18
100
AcDb2dPolyline
 66
     1
 10
0.0
 20
0.0
 30
0.0
  0
VERTEX
  5
67
330
66
100
AcDbEntity
  8
Camada 1
 62
     7
420
 16777215
370
    18
100
AcDbVertex
100
AcDb2dVertex
 10
199.2980372862992
 20
449.822169459507
 30
0.0
  0
VERTEX
  5
68
330
66
100
AcDbEntity
  8
Camada 1
 62
     7
420
 16777215
370
    18
100
AcDbVertex
100
AcDb2dVertex
 10
200.2991174259272
 20
443.8155161777589
 30
0.0
  0
VERTEX
  5
69
330
66
100
AcDbEntity
  8
Camada 1
 62
     7
420
 16777215
370
    18
100
AcDbVertex
100
AcDb2dVertex
 10
198.2969140356741
 20
443.8155161777589
 30
0.0
  0
VERTEX
  5
6A
330
66
100
AcDbEntity
  8
Camada 1
 62
     7
420
 16777215
370
    18
100
AcDbVertex
100
AcDb2dVertex
 10
199.2980372862992
 20
449.822169459507
 30
0.0
  0
SEQEND
  5
6B
330
66
100
AcDbEntity
  8
Camada 1
 62
     7
420
 16777215
370
    18
  0
POLYLINE
  5
6C
330
1F
100
AcDbEntity
  8
Camada 1
370
     0
100
AcDb2dPolyline
 66
     1
 10
0.0
 20
0.0
 30
0.0
  0
VERTEX
  5
6D
330
6C
100
AcDbEntity
  8
Camada 1
370
     0
100
AcDbVertex
100
AcDb2dVertex
 10
199.2980372862992
 20
-10.68301519192175
 30
0.0
  0
VERTEX
  5
6E
330
6C
100
AcDbEntity
  8
Camada 1
370
     0
100
AcDbVertex
100
AcDb2dVertex
 10
198.2969140356741
 20
-4.67640502117324
 30
0.0
  0
VERTEX
  5
6F
330
6C
100
AcDbEntity
  8
Camada 1
370
     0
100
AcDbVertex
100
AcDb2dVertex
 10
200.2991174259272
 20
-4.67640502117324
 30
0.0
  0
VERTEX
  5
70
330
6C
100
AcDbEntity
  8
Camada 1
370
     0
100
AcDbVertex
100
AcDb2dVertex
 10
199.2980372862992
 20
-10.68301519192175
 30
0.0
  0
SEQEND
  5
72
330
6C
100
AcDbEntity
  8
Camada 1
370
     0
  0
HATCH
  5
71
330
1F
100
AcDbEntity
  8
Camada 1
 62
     7
420
 16777215
100
AcDbHatch
 10
0.0
 20
0.0
 30
0.0
210
0.0
220
0.0
230
1.0
  2
SOLID
 70
     1
 71
     0
 91
        1
 92
        1
 93
        3
 72
     1
 10
199.2980372862992
 20
-10.68301519192175
 11
198.2969140356741
 21
-4.67640502117324
 72
     1
 10
198.2969140356741
 20
-4.67640502117324
 11
200.2991174259272
 21
-4.67640502117324
 72
     1
 10
200.2991174259272
 20
-4.67640502117324
 11
199.2980372862992
 21
-10.68301519192175
 97
        0
 75
     2
 76
     1
 98
        0
  0
POLYLINE
  5
73
330
1F
100
AcDbEntity
  8
Camada 1
 62
     7
420
 16777215
370
    18
100
AcDb2dPolyline
 66
     1
 10
0.0
 20
0.0
 30
0.0
  0
VERTEX
  5
74
330
73
100
AcDbEntity
  8
Camada 1
 62
     7
420
 16777215
370
    18
100
AcDbVertex
100
AcDb2dVertex
 10
199.2980372862992
 20
-10.68301519192175
 30
0.0
  0
VERTEX
  5
75
330
73
100
AcDbEntity
  8
Camada 1
 62
     7
420
 16777215
370
    18
100
AcDbVertex
100
AcDb2dVertex
 10
198.2969140356741
 20
-4.67640502117324
 30
0.0
  0
VERTEX
  5
76
330
73
100
AcDbEntity
  8
Camada 1
 62
     7
420
 16777215
370
    18
100
AcDbVertex
100
AcDb2dVertex
 10
200.2991174259272
 20
-4.67640502117324
 30
0.0
  0
VERTEX
  5
77
330
73
100
AcDbEntity
  8
Camada 1
 62
     7
420
 16777215
370
    18
100
AcDbVertex
100
AcDb2dVertex
 10
199.2980372862992
 20
-10.68301519192175
 30
0.0
  0
SEQEND
  5
78
330
73
100
AcDbEntity
  8
Camada 1
 62
     7
420
 16777215
370
    18
  0
MTEXT
  5
79
330
1F
100
AcDbEntity
  8
Camada 1
 62
     7
420
 16777215
100
AcDbMText
 10
466.4716575198127
 20
478.1785643335804
 30
0.0
 40
10.48466241549
 41
0.0
 46
0.0
 71
     7
 72
     1
  1
\fHelvetica Light|b0|i0|c0|p34;\W1;400
 73
     1
 44
1.0
  0
POLYLINE
  5
7A
330
1F
100
AcDbEntity
  8
Camada 1
370
     0
100
AcDb2dPolyline
 66
     1
 10
0.0
 20
0.0
 30
0.0
  0
VERTEX
  5
7B
330
7A
100
AcDbEntity
  8
Camada 1
370
     0
100
AcDbVertex
100
AcDb2dVertex
 10
277.3836677292144
 20
473.8485239205563
 30
0.0
  0
VERTEX
  5
7C
330
7A
100
AcDbEntity
  8
Camada 1
370
     0
100
AcDbVertex
100
AcDb2dVertex
 10
283.3902778999719
 20
474.8495609492069
 30
0.0
  0
VERTEX
  5
7D
330
7A
100
AcDbEntity
  8
Camada 1
370
     0
100
AcDbVertex
100
AcDb2dVertex
 10
283.3902778999719
 20
472.8474006699315
 30
0.0
  0
VERTEX
  5
7E
330
7A
100
AcDbEntity
  8
Camada 1
370
     0
100
AcDbVertex
100
AcDb2dVertex
 10
277.3836677292144
 20
473.8485239205563
 30
0.0
  0
SEQEND
  5
80
330
7A
100
AcDbEntity
  8
Camada 1
370
     0
  0
HATCH
  5
7F
330
1F
100
AcDbEntity
  8
Camada 1
 62
     7
420
 16777215
100
AcDbHatch
 10
0.0
 20
0.0
 30
0.0
210
0.0
220
0.0
230
1.0
  2
SOLID
 70
     1
 71
     0
 91
        1
 92
        1
 93
        3
 72
     1
 10
277.3836677292144
 20
473.8485239205563
 11
283.3902778999719
 21
474.8495609492069
 72
     1
 10
283.3902778999719
 20
474.8495609492069
 11
283.3902778999719
 21
472.8474006699315
 72
     1
 10
283.3902778999719
 20
472.8474006699315
 11
277.3836677292144
 21
473.8485239205563
 97
        0
 75
     2
 76
     1
 98
        0
  0
POLYLINE
  5
81
330
1F
100
AcDbEntity
  8
Camada 1
 62
     7
420
 16777215
370
    18
100
AcDb2dPolyline
 66
     1
 10
0.0
 20
0.0
 30
0.0
  0
VERTEX
  5
82
330
81
100
AcDbEntity
  8
Camada 1
 62
     7
420
 16777215
370
    18
100
AcDbVertex
100
AcDb2dVertex
 10
277.3836677292144
 20
473.8485239205563
 30
0.0
  0
VERTEX
  5
83
330
81
100
AcDbEntity
  8
Camada 1
 62
     7
420
 16777215
370
    18
100
AcDbVertex
100
AcDb2dVertex
 10
283.3902778999719
 20
474.8495609492069
 30
0.0
  0
VERTEX
  5
84
330
81
100
AcDbEntity
  8
Camada 1
 62
     7
420
 16777215
370
    18
100
AcDbVertex
100
AcDb2dVertex
 10
283.3902778999719
 20
472.8474006699315
 30
0.0
  0
VERTEX
  5
85
330
81
100
AcDbEntity
  8
Camada 1
 62
     7
420
 16777215
370
    18
100
AcDbVertex
100
AcDb2dVertex
 10
277.3836677292144
 20
473.8485239205563
 30
0.0
  0
SEQEND
  5
86
330
81
100
AcDbEntity
  8
Camada 1
 62
     7
420
 16777215
370
    18
  0
POLYLINE
  5
87
330
1F
100
AcDbEntity
  8
Camada 1
370
     0
100
AcDb2dPolyline
 66
     1
 10
0.0
 20
0.0
 30
0.0
  0
VERTEX
  5
88
330
87
100
AcDbEntity
  8
Camada 1
370
     0
100
AcDbVertex
100
AcDb2dVertex
 10
677.8229231170308
 20
473.8485239205563
 30
0.0
  0
VERTEX
  5
89
330
87
100
AcDbEntity
  8
Camada 1
370
     0
100
AcDbVertex
100
AcDb2dVertex
 10
671.8163560572716
 20
472.8474006699315
 30
0.0
  0
VERTEX
  5
8A
330
87
100
AcDbEntity
  8
Camada 1
370
     0
100
AcDbVertex
100
AcDb2dVertex
 10
671.8163560572716
 20
474.8495609492069
 30
0.0
  0
VERTEX
  5
8B
330
87
100
AcDbEntity
  8
Camada 1
370
     0
100
AcDbVertex
100
AcDb2dVertex
 10
677.8229231170308
 20
473.8485239205563
 30
0.0
  0
SEQEND
  5
8D
330
87
100
AcDbEntity
  8
Camada 1
370
     0
  0
HATCH
  5
8C
330
1F
100
AcDbEntity
  8
Camada 1
 62
     7
420
 16777215
100
AcDbHatch
 10
0.0
 20
0.0
 30
0.0
210
0.0
220
0.0
230
1.0
  2
SOLID
 70
     1
 71
     0
 91
        1
 92
        1
 93
        3
 72
     1
 10
677.8229231170308
 20
473.8485239205563
 11
671.8163560572716
 21
472.8474006699315
 72
     1
 10
671.8163560572716
 20
472.8474006699315
 11
671.8163560572716
 21
474.8495609492069
 72
     1
 10
671.8163560572716
 20
474.8495609492069
 11
677.8229231170308
 21
473.8485239205563
 97
        0
 75
     2
 76
     1
 98
        0
  0
POLYLINE
  5
8E
330
1F
100
AcDbEntity
  8
Camada 1
 62
     7
420
 16777215
370
    18
100
AcDb2dPolyline
 66
     1
 10
0.0
 20
0.0
 30
0.0
  0
VERTEX
  5
8F
330
8E
100
AcDbEntity
  8
Camada 1
 62
     7
420
 16777215
370
    18
100
AcDbVertex
100
AcDb2dVertex
 10
677.8229231170308
 20
473.8485239205563
 30
0.0
  0
VERTEX
  5
90
330
8E
100
AcDbEntity
  8
Camada 1
 62
     7
420
 16777215
370
    18
100
AcDbVertex
100
AcDb2dVertex
 10
671.8163560572716
 20
472.8474006699315
 30
0.0
  0
VERTEX
  5
91
330
8E
100
AcDbEntity
  8
Camada 1
 62
     7
420
 16777215
370
    18
100
AcDbVertex
100
AcDb2dVertex
 10
671.8163560572716
 20
474.8495609492069
 30
0.0
  0
VERTEX
  5
92
330
8E
100
AcDbEntity
  8
Camada 1
 62
     7
420
 16777215
370
    18
100
AcDbVertex
100
AcDb2dVertex
 10
677.8229231170308
 20
473.8485239205563
 30
0.0
  0
SEQEND
  5
93
330
8E
100
AcDbEntity
  8
Camada 1
 62
     7
420
 16777215
370
    18
  0
MTEXT
  5
94
330
1F
100
AcDbEntity
  8
Camada 1
 62
     7
420
 16777215
100
AcDbMText
 10
218.9939123559876
 20
219.5824625102086
 30
0.0
 40
10.48466241549
 41
0.0
 46
0.0
 71
     7
 72
     1
  1
\fHelvetica Light|b0|i0|c0|p34;\W1;400
 11
6.123233995736766E-17
 21
1.0
 31
0.0
 73
     1
 44
1.0
  0
POLYLINE
  5
95
330
1F
100
AcDbEntity
  8
Camada 1
370
     0
100
AcDb2dPolyline
 66
     1
 10
0.0
 20
0.0
 30
0.0
  0
VERTEX
  5
96
330
95
100
AcDbEntity
  8
Camada 1
370
     0
100
AcDbVertex
100
AcDb2dVertex
 10
223.3243917473392
 20
419.7891617167185
 30
0.0
  0
VERTEX
  5
97
330
95
100
AcDbEntity
  8
Camada 1
370
     0
100
AcDbVertex
100
AcDb2dVertex
 10
224.3254718869788
 20
413.7825946569471
 30
0.0
  0
VERTEX
  5
98
330
95
100
AcDbEntity
  8
Camada 1
370
     0
100
AcDbVertex
100
AcDb2dVertex
 10
222.3232684967257
 20
413.7825946569471
 30
0.0
  0
VERTEX
  5
99
330
95
100
AcDbEntity
  8
Camada 1
370
     0
100
AcDbVertex
100
AcDb2dVertex
 10
223.3243917473392
 20
419.7891617167185
 30
0.0
  0
SEQEND
  5
9B
330
95
100
AcDbEntity
  8
Camada 1
370
     0
  0
HATCH
  5
9A
330
1F
100
AcDbEntity
  8
Camada 1
 62
     7
420
 16777215
100
AcDbHatch
 10
0.0
 20
0.0
 30
0.0
210
0.0
220
0.0
230
1.0
  2
SOLID
 70
     1
 71
     0
 91
        1
 92
        1
 93
        3
 72
     1
 10
223.3243917473392
 20
419.7891617167185
 11
224.3254718869788
 21
413.7825946569471
 72
     1
 10
224.3254718869788
 20
413.7825946569471
 11
222.3232684967257
 21
413.7825946569471
 72
     1
 10
222.3232684967257
 20
413.7825946569471
 11
223.3243917473392
 21
419.7891617167185
 97
        0
 75
     2
 76
     1
 98
        0
  0
POLYLINE
  5
9C
330
1F
100
AcDbEntity
  8
Camada 1
 62
     7
420
 16777215
370
    18
100
AcDb2dPolyline
 66
     1
 10
0.0
 20
0.0
 30
0.0
  0
VERTEX
  5
9D
330
9C
100
AcDbEntity
  8
Camada 1
 62
     7
420
 16777215
370
    18
100
AcDbVertex
100
AcDb2dVertex
 10
223.3243917473392
 20
419.7891617167185
 30
0.0
  0
VERTEX
  5
9E
330
9C
100
AcDbEntity
  8
Camada 1
 62
     7
420
 16777215
370
    18
100
AcDbVertex
100
AcDb2dVertex
 10
224.3254718869788
 20
413.7825946569471
 30
0.0
  0
VERTEX
  5
9F
330
9C
100
AcDbEntity
  8
Camada 1
 62
     7
420
 16777215
370
    18
100
AcDbVertex
100
AcDb2dVertex
 10
222.3232684967257
 20
413.7825946569471
 30
0.0
  0
VERTEX
  5
A0
330
9C
100
AcDbEntity
  8
Camada 1
 62
     7
420
 16777215
370
    18
100
AcDbVertex
100
AcDb2dVertex
 10
223.3243917473392
 20
419.7891617167185
 30
0.0
  0
SEQEND
  5
A1
330
9C
100
AcDbEntity
  8
Camada 1
 62
     7
420
 16777215
370
    18
  0
POLYLINE
  5
A2
330
1F
100
AcDbEntity
  8
Camada 1
370
     0
100
AcDb2dPolyline
 66
     1
 10
0.0
 20
0.0
 30
0.0
  0
VERTEX
  5
A3
330
A2
100
AcDbEntity
  8
Camada 1
370
     0
100
AcDbVertex
100
AcDb2dVertex
 10
223.3243917473392
 20
19.34994943987547
 30
0.0
  0
VERTEX
  5
A4
330
A2
100
AcDbEntity
  8
Camada 1
370
     0
100
AcDbVertex
100
AcDb2dVertex
 10
222.3232684967257
 20
25.3565164996481
 30
0.0
  0
VERTEX
  5
A5
330
A2
100
AcDbEntity
  8
Camada 1
370
     0
100
AcDbVertex
100
AcDb2dVertex
 10
224.3254718869788
 20
25.3565164996481
 30
0.0
  0
VERTEX
  5
A6
330
A2
100
AcDbEntity
  8
Camada 1
370
     0
100
AcDbVertex
100
AcDb2dVertex
 10
223.3243917473392
 20
19.34994943987547
 30
0.0
  0
SEQEND
  5
A8
330
A2
100
AcDbEntity
  8
Camada 1
370
     0
  0
HATCH
  5
A7
330
1F
100
AcDbEntity
  8
Camada 1
 62
     7
420
 16777215
100
AcDbHatch
 10
0.0
 20
0.0
 30
0.0
210
0.0
220
0.0
230
1.0
  2
SOLID
 70
     1
 71
     0
 91
        1
 92
        1
 93
        3
 72
     1
 10
223.3243917473392
 20
19.34994943987547
 11
222.3232684967257
 21
25.3565164996481
 72
     1
 10
222.3232684967257
 20
25.3565164996481
 11
224.3254718869788
 21
25.3565164996481
 72
     1
 10
224.3254718869788
 20
25.3565164996481
 11
223.3243917473392
 21
19.34994943987547
 97
        0
 75
     2
 76
     1
 98
        0
  0
POLYLINE
  5
A9
330
1F
100
AcDbEntity
  8
Camada 1
 62
     7
420
 16777215
370
    18
100
AcDb2dPolyline
 66
     1
 10
0.0
 20
0.0
 30
0.0
  0
VERTEX
  5
AA
330
A9
100
AcDbEntity
  8
Camada 1
 62
     7
420
 16777215
370
    18
100
AcDbVertex
100
AcDb2dVertex
 10
223.3243917473392
 20
19.34994943987547
 30
0.0
  0
VERTEX
  5
AB
330
A9
100
AcDbEntity
  8
Camada 1
 62
     7
420
 16777215
370
    18
100
AcDbVertex
100
AcDb2dVertex
 10
222.3232684967257
 20
25.3565164996481
 30
0.0
  0
VERTEX
  5
AC
330
A9
100
AcDbEntity
  8
Camada 1
 62
     7
420
 16777215
370
    18
100
AcDbVertex
100
AcDb2dVertex
 10
224.3254718869788
 20
25.3565164996481
 30
0.0
  0
VERTEX
  5
AD
330
A9
100
AcDbEntity
  8
Camada 1
 62
     7
420
 16777215
370
    18
100
AcDbVertex
100
AcDb2dVertex
 10
223.3243917473392
 20
19.34994943987547
 30
0.0
  0
SEQEND
  5
AE
330
A9
100
AcDbEntity
  8
Camada 1
 62
     7
420
 16777215
370
    18
  0
MTEXT
  5
AF
330
1F
100
AcDbEntity
  8
Camada 1
 62
     7
420
 16777215
100
AcDbMText
 10
786.6917325808166
 20
478.1785643335804
 30
0.0
 40
10.48466241549
 41
0.0
 46
0.0
 71
     7
 72
     1
  1
\fHelvetica Light|b0|i0|c0|p34;\W1;170
 73
     1
 44
1.0
  0
POLYLINE
  5
B0
330
1F
100
AcDbEntity
  8
Camada 1
370
     0
100
AcDb2dPolyline
 66
     1
 10
0.0
 20
0.0
 30
0.0
  0
VERTEX
  5
B1
330
B0
100
AcDbEntity
  8
Camada 1
370
     0
100
AcDbVertex
100
AcDb2dVertex
 10
707.8558446378546
 20
473.8485239205563
 30
0.0
  0
VERTEX
  5
B2
330
B0
100
AcDbEntity
  8
Camada 1
370
     0
100
AcDbVertex
100
AcDb2dVertex
 10
713.8624979195906
 20
474.8495609492069
 30
0.0
  0
VERTEX
  5
B3
330
B0
100
AcDbEntity
  8
Camada 1
370
     0
100
AcDbVertex
100
AcDb2dVertex
 10
713.8624979195906
 20
472.8474006699315
 30
0.0
  0
VERTEX
  5
B4
330
B0
100
AcDbEntity
  8
Camada 1
370
     0
100
AcDbVertex
100
AcDb2dVertex
 10
707.8558446378546
 20
473.8485239205563
 30
0.0
  0
SEQEND
  5
B6
330
B0
100
AcDbEntity
  8
Camada 1
370
     0
  0
HATCH
  5
B5
330
1F
100
AcDbEntity
  8
Camada 1
 62
     7
420
 16777215
100
AcDbHatch
 10
0.0
 20
0.0
 30
0.0
210
0.0
220
0.0
230
1.0
  2
SOLID
 70
     1
 71
     0
 91
        1
 92
        1
 93
        3
 72
     1
 10
707.8558446378546
 20
473.8485239205563
 11
713.8624979195906
 21
474.8495609492069
 72
     1
 10
713.8624979195906
 20
474.8495609492069
 11
713.8624979195906
 21
472.8474006699315
 72
     1
 10
713.8624979195906
 20
472.8474006699315
 11
707.8558446378546
 21
473.8485239205563
 97
        0
 75
     2
 76
     1
 98
        0
  0
POLYLINE
  5
B7
330
1F
100
AcDbEntity
  8
Camada 1
 62
     7
420
 16777215
370
    18
100
AcDb2dPolyline
 66
     1
 10
0.0
 20
0.0
 30
0.0
  0
VERTEX
  5
B8
330
B7
100
AcDbEntity
  8
Camada 1
 62
     7
420
 16777215
370
    18
100
AcDbVertex
100
AcDb2dVertex
 10
707.8558446378546
 20
473.8485239205563
 30
0.0
  0
VERTEX
  5
B9
330
B7
100
AcDbEntity
  8
Camada 1
 62
     7
420
 16777215
370
    18
100
AcDbVertex
100
AcDb2dVertex
 10
713.8624979195906
 20
474.8495609492069
 30
0.0
  0
VERTEX
  5
BA
330
B7
100
AcDbEntity
  8
Camada 1
 62
     7
420
 16777215
370
    18
100
AcDbVertex
100
AcDb2dVertex
 10
713.8624979195906
 20
472.8474006699315
 30
0.0
  0
VERTEX
  5
BB
330
B7
100
AcDbEntity
  8
Camada 1
 62
     7
420
 16777215
370
    18
100
AcDbVertex
100
AcDb2dVertex
 10
707.8558446378546
 20
473.8485239205563
 30
0.0
  0
SEQEND
  5
BC
330
B7
100
AcDbEntity
  8
Camada 1
 62
     7
420
 16777215
370
    18
  0
POLYLINE
  5
BD
330
1F
100
AcDbEntity
  8
Camada 1
370
     0
100
AcDb2dPolyline
 66
     1
 10
0.0
 20
0.0
 30
0.0
  0
VERTEX
  5
BE
330
BD
100
AcDbEntity
  8
Camada 1
370
     0
100
AcDbVertex
100
AcDb2dVertex
 10
878.04257236644
 20
473.8485239205563
 30
0.0
  0
VERTEX
  5
BF
330
BD
100
AcDbEntity
  8
Camada 1
370
     0
100
AcDbVertex
100
AcDb2dVertex
 10
872.0360053066687
 20
472.8474006699315
 30
0.0
  0
VERTEX
  5
C0
330
BD
100
AcDbEntity
  8
Camada 1
370
     0
100
AcDbVertex
100
AcDb2dVertex
 10
872.0360053066687
 20
474.8495609492069
 30
0.0
  0
VERTEX
  5
C1
330
BD
100
AcDbEntity
  8
Camada 1
370
     0
100
AcDbVertex
100
AcDb2dVertex
 10
878.04257236644
 20
473.8485239205563
 30
0.0
  0
SEQEND
  5
C3
330
BD
100
AcDbEntity
  8
Camada 1
370
     0
  0
HATCH
  5
C2
330
1F
100
AcDbEntity
  8
Camada 1
 62
     7
420
 16777215
100
AcDbHatch
 10
0.0
 20
0.0
 30
0.0
210
0.0
220
0.0
230
1.0
  2
SOLID
 70
     1
 71
     0
 91
        1
 92
        1
 93
        3
 72
     1
 10
878.04257236644
 20
473.8485239205563
 11
872.0360053066687
 21
472.8474006699315
 72
     1
 10
872.0360053066687
 20
472.8474006699315
 11
872.0360053066687
 21
474.8495609492069
 72
     1
 10
872.0360053066687
 20
474.8495609492069
 11
878.04257236644
 21
473.8485239205563
 97
        0
 75
     2
 76
     1
 98
        0
  0
POLYLINE
  5
C4
330
1F
100
AcDbEntity
  8
Camada 1
 62
     7
420
 16777215
370
    18
100
AcDb2dPolyline
 66
     1
 10
0.0
 20
0.0
 30
0.0
  0
VERTEX
  5
C5
330
C4
100
AcDbEntity
  8
Camada 1
 62
     7
420
 16777215
370
    18
100
AcDbVertex
100
AcDb2dVertex
 10
878.04257236644
 20
473.8485239205563
 30
0.0
  0
VERTEX
  5
C6
330
C4
100
AcDbEntity
  8
Camada 1
 62
     7
420
 16777215
370
    18
100
AcDbVertex
100
AcDb2dVertex
 10
872.0360053066687
 20
472.8474006699315
 30
0.0
  0
VERTEX
  5
C7
330
C4
100
AcDbEntity
  8
Camada 1
 62
     7
420
 16777215
370
    18
100
AcDbVertex
100
AcDb2dVertex
 10
872.0360053066687
 20
474.8495609492069
 30
0.0
  0
VERTEX
  5
C8
330
C4
100
AcDbEntity
  8
Camada 1
 62
     7
420
 16777215
370
    18
100
AcDbVertex
100
AcDb2dVertex
 10
878.04257236644
 20
473.8485239205563
 30
0.0
  0
SEQEND
  5
C9
330
C4
100
AcDbEntity
  8
Camada 1
 62
     7
420
 16777215
370
    18
  0
MTEXT
  5
CA
330
1F
100
AcDbEntity
  8
Camada 1
 62
     7
420
 16777215
100
AcDbMText
 10
928.4677470853032
 20
369.8757865828783
 30
0.0
 40
10.48466241549
 41
0.0
 46
0.0
 71
     7
 72
     1
  1
\fHelvetica Light|b0|i0|c0|p34;\W1;150
 11
6.123233995736766E-17
 21
1.0
 31
0.0
 73
     1
 44
1.0
  0
POLYLINE
  5
CB
330
1F
100
AcDbEntity
  8
Camada 1
370
     0
100
AcDb2dPolyline
 66
     1
 10
0.0
 20
0.0
 30
0.0
  0
VERTEX
  5
CC
330
CB
100
AcDbEntity
  8
Camada 1
370
     0
100
AcDbVertex
100
AcDb2dVertex
 10
932.1018483483133
 20
299.6573894114653
 30
0.0
  0
VERTEX
  5
CD
330
CB
100
AcDbEntity
  8
Camada 1
370
     0
100
AcDbVertex
100
AcDb2dVertex
 10
931.1007250976897
 20
305.6640426932006
 30
0.0
  0
VERTEX
  5
CE
330
CB
100
AcDbEntity
  8
Camada 1
370
     0
100
AcDbVertex
100
AcDb2dVertex
 10
933.1029715989284
 20
305.6640426932006
 30
0.0
  0
VERTEX
  5
CF
330
CB
100
AcDbEntity
  8
Camada 1
370
     0
100
AcDbVertex
100
AcDb2dVertex
 10
932.1018483483133
 20
299.6573894114653
 30
0.0
  0
SEQEND
  5
D1
330
CB
100
AcDbEntity
  8
Camada 1
370
     0
  0
HATCH
  5
D0
330
1F
100
AcDbEntity
  8
Camada 1
 62
     7
420
 16777215
100
AcDbHatch
 10
0.0
 20
0.0
 30
0.0
210
0.0
220
0.0
230
1.0
  2
SOLID
 70
     1
 71
     0
 91
        1
 92
        1
 93
        3
 72
     1
 10
932.1018483483133
 20
299.6573894114653
 11
931.1007250976897
 21
305.6640426932006
 72
     1
 10
931.1007250976897
 20
305.6640426932006
 11
933.1029715989284
 21
305.6640426932006
 72
     1
 10
933.1029715989284
 20
305.6640426932006
 11
932.1018483483133
 21
299.6573894114653
 97
        0
 75
     2
 76
     1
 98
        0
  0
POLYLINE
  5
D2
330
1F
100
AcDbEntity
  8
Camada 1
 62
     7
420
 16777215
370
    18
100
AcDb2dPolyline
 66
     1
 10
0.0
 20
0.0
 30
0.0
  0
VERTEX
  5
D3
330
D2
100
AcDbEntity
  8
Camada 1
 62
     7
420
 16777215
370
    18
100
AcDbVertex
100
AcDb2dVertex
 10
932.1018483483133
 20
299.6573894114653
 30
0.0
  0
VERTEX
  5
D4
330
D2
100
AcDbEntity
  8
Camada 1
 62
     7
420
 16777215
370
    18
100
AcDbVertex
100
AcDb2dVertex
 10
931.1007250976897
 20
305.6640426932006
 30
0.0
  0
VERTEX
  5
D5
330
D2
100
AcDbEntity
  8
Camada 1
 62
     7
420
 16777215
370
    18
100
AcDbVertex
100
AcDb2dVertex
 10
933.1029715989284
 20
305.6640426932006
 30
0.0
  0
VERTEX
  5
D6
330
D2
100
AcDbEntity
  8
Camada 1
 62
     7
420
 16777215
370
    18
100
AcDbVertex
100
AcDb2dVertex
 10
932.1018483483133
 20
299.6573894114653
 30
0.0
  0
SEQEND
  5
D7
330
D2
100
AcDbEntity
  8
Camada 1
 62
     7
420
 16777215
370
    18
  0
POLYLINE
  5
D8
330
1F
100
AcDbEntity
  8
Camada 1
370
     0
100
AcDb2dPolyline
 66
     1
 10
0.0
 20
0.0
 30
0.0
  0
VERTEX
  5
D9
330
D8
100
AcDbEntity
  8
Camada 1
370
     0
100
AcDbVertex
100
AcDb2dVertex
 10
932.1018483483133
 20
449.822169459507
 30
0.0
  0
VERTEX
  5
DA
330
D8
100
AcDbEntity
  8
Camada 1
370
     0
100
AcDbVertex
100
AcDb2dVertex
 10
933.1029715989284
 20
443.8155161777589
 30
0.0
  0
VERTEX
  5
DB
330
D8
100
AcDbEntity
  8
Camada 1
370
     0
100
AcDbVertex
100
AcDb2dVertex
 10
931.1007250976897
 20
443.8155161777589
 30
0.0
  0
VERTEX
  5
DC
330
D8
100
AcDbEntity
  8
Camada 1
370
     0
100
AcDbVertex
100
AcDb2dVertex
 10
932.1018483483133
 20
449.822169459507
 30
0.0
  0
SEQEND
  5
DE
330
D8
100
AcDbEntity
  8
Camada 1
370
     0
  0
HATCH
  5
DD
330
1F
100
AcDbEntity
  8
Camada 1
 62
     7
420
 16777215
100
AcDbHatch
 10
0.0
 20
0.0
 30
0.0
210
0.0
220
0.0
230
1.0
  2
SOLID
 70
     1
 71
     0
 91
        1
 92
        1
 93
        3
 72
     1
 10
932.1018483483133
 20
449.822169459507
 11
933.1029715989284
 21
443.8155161777589
 72
     1
 10
933.1029715989284
 20
443.8155161777589
 11
931.1007250976897
 21
443.8155161777589
 72
     1
 10
931.1007250976897
 20
443.8155161777589
 11
932.1018483483133
 21
449.822169459507
 97
        0
 75
     2
 76
     1
 98
        0
  0
POLYLINE
  5
DF
330
1F
100
AcDbEntity
  8
Camada 1
 62
     7
420
 16777215
370
    18
100
AcDb2dPolyline
 66
     1
 10
0.0
 20
0.0
 30
0.0
  0
VERTEX
  5
E0
330
DF
100
AcDbEntity
  8
Camada 1
 62
     7
420
 16777215
370
    18
100
AcDbVertex
100
AcDb2dVertex
 10
932.1018483483133
 20
449.822169459507
 30
0.0
  0
VERTEX
  5
E1
330
DF
100
AcDbEntity
  8
Camada 1
 62
     7
420
 16777215
370
    18
100
AcDbVertex
100
AcDb2dVertex
 10
933.1029715989284
 20
443.8155161777589
 30
0.0
  0
VERTEX
  5
E2
330
DF
100
AcDbEntity
  8
Camada 1
 62
     7
420
 16777215
370
    18
100
AcDbVertex
100
AcDb2dVertex
 10
931.1007250976897
 20
443.8155161777589
 30
0.0
  0
VERTEX
  5
E3
330
DF
100
AcDbEntity
  8
Camada 1
 62
     7
420
 16777215
370
    18
100
AcDbVertex
100
AcDb2dVertex
 10
932.1018483483133
 20
449.822169459507
 30
0.0
  0
SEQEND
  5
E4
330
DF
100
AcDbEntity
  8
Camada 1
 62
     7
420
 16777215
370
    18
  0
MTEXT
  5
E5
330
1F
100
AcDbEntity
  8
Camada 1
 62
     7
420
 16777215
100
AcDbMText
 10
844.9503642936826
 20
-30.37781846028749
 30
0.0
 40
10.48466241549
 41
0.0
 46
0.0
 71
     7
 72
     1
  1
\fHelvetica Light|b0|i0|c0|p34;\W1;115
 73
     1
 44
1.0
  0
POLYLINE
  5
E6
330
1F
100
AcDbEntity
  8
Camada 1
370
     0
100
AcDb2dPolyline
 66
     1
 10
0.0
 20
0.0
 30
0.0
  0
VERTEX
  5
E7
330
E6
100
AcDbEntity
  8
Camada 1
370
     0
100
AcDbVertex
100
AcDb2dVertex
 10
792.9492516131296
 20
-34.70936965297302
 30
0.0
  0
VERTEX
  5
E8
330
E6
100
AcDbEntity
  8
Camada 1
370
     0
100
AcDbVertex
100
AcDb2dVertex
 10
798.9558186729004
 20
-33.7082464023598
 30
0.0
  0
VERTEX
  5
E9
330
E6
100
AcDbEntity
  8
Camada 1
370
     0
100
AcDbVertex
100
AcDb2dVertex
 10
798.9558186729004
 20
-35.71044979261229
 30
0.0
  0
VERTEX
  5
EA
330
E6
100
AcDbEntity
  8
Camada 1
370
     0
100
AcDbVertex
100
AcDb2dVertex
 10
792.9492516131296
 20
-34.70936965297302
 30
0.0
  0
SEQEND
  5
EC
330
E6
100
AcDbEntity
  8
Camada 1
370
     0
  0
HATCH
  5
EB
330
1F
100
AcDbEntity
  8
Camada 1
 62
     7
420
 16777215
100
AcDbHatch
 10
0.0
 20
0.0
 30
0.0
210
0.0
220
0.0
230
1.0
  2
SOLID
 70
     1
 71
     0
 91
        1
 92
        1
 93
        3
 72
     1
 10
792.9492516131296
 20
-34.70936965297302
 11
798.9558186729004
 21
-33.7082464023598
 72
     1
 10
798.9558186729004
 20
-33.7082464023598
 11
798.9558186729004
 21
-35.71044979261229
 72
     1
 10
798.9558186729004
 20
-35.71044979261229
 11
792.9492516131296
 21
-34.70936965297302
 97
        0
 75
     2
 76
     1
 98
        0
  0
POLYLINE
  5
ED
330
1F
100
AcDbEntity
  8
Camada 1
 62
     7
420
 16777215
370
    18
100
AcDb2dPolyline
 66
     1
 10
0.0
 20
0.0
 30
0.0
  0
VERTEX
  5
EE
330
ED
100
AcDbEntity
  8
Camada 1
 62
     7
420
 16777215
370
    18
100
AcDbVertex
100
AcDb2dVertex
 10
792.9492516131296
 20
-34.70936965297302
 30
0.0
  0
VERTEX
  5
EF
330
ED
100
AcDbEntity
  8
Camada 1
 62
     7
420
 16777215
370
    18
100
AcDbVertex
100
AcDb2dVertex
 10
798.9558186729004
 20
-33.7082464023598
 30
0.0
  0
VERTEX
  5
F0
330
ED
100
AcDbEntity
  8
Camada 1
 62
     7
420
 16777215
370
    18
100
AcDbVertex
100
AcDb2dVertex
 10
798.9558186729004
 20
-35.71044979261229
 30
0.0
  0
VERTEX
  5
F1
330
ED
100
AcDbEntity
  8
Camada 1
 62
     7
420
 16777215
370
    18
100
AcDbVertex
100
AcDb2dVertex
 10
792.9492516131296
 20
-34.70936965297302
 30
0.0
  0
SEQEND
  5
F2
330
ED
100
AcDbEntity
  8
Camada 1
 62
     7
420
 16777215
370
    18
  0
POLYLINE
  5
F3
330
1F
100
AcDbEntity
  8
Camada 1
370
     0
100
AcDb2dPolyline
 66
     1
 10
0.0
 20
0.0
 30
0.0
  0
VERTEX
  5
F4
330
F3
100
AcDbEntity
  8
Camada 1
370
     0
100
AcDbVertex
100
AcDb2dVertex
 10
908.0754938872614
 20
-34.70936965297302
 30
0.0
  0
VERTEX
  5
F5
330
F3
100
AcDbEntity
  8
Camada 1
370
     0
100
AcDbVertex
100
AcDb2dVertex
 10
902.0689268274913
 20
-35.71044979261229
 30
0.0
  0
VERTEX
  5
F6
330
F3
100
AcDbEntity
  8
Camada 1
370
     0
100
AcDbVertex
100
AcDb2dVertex
 10
902.0689268274913
 20
-33.7082464023598
 30
0.0
  0
VERTEX
  5
F7
330
F3
100
AcDbEntity
  8
Camada 1
370
     0
100
AcDbVertex
100
AcDb2dVertex
 10
908.0754938872614
 20
-34.70936965297302
 30
0.0
  0
SEQEND
  5
F9
330
F3
100
AcDbEntity
  8
Camada 1
370
     0
  0
HATCH
  5
F8
330
1F
100
AcDbEntity
  8
Camada 1
 62
     7
420
 16777215
100
AcDbHatch
 10
0.0
 20
0.0
 30
0.0
210
0.0
220
0.0
230
1.0
  2
SOLID
 70
     1
 71
     0
 91
        1
 92
        1
 93
        3
 72
     1
 10
908.0754938872614
 20
-34.70936965297302
 11
902.0689268274913
 21
-35.71044979261229
 72
     1
 10
902.0689268274913
 20
-35.71044979261229
 11
902.0689268274913
 21
-33.7082464023598
 72
     1
 10
902.0689268274913
 20
-33.7082464023598
 11
908.0754938872614
 21
-34.70936965297302
 97
        0
 75
     2
 76
     1
 98
        0
  0
POLYLINE
  5
FA
330
1F
100
AcDbEntity
  8
Camada 1
 62
     7
420
 16777215
370
    18
100
AcDb2dPolyline
 66
     1
 10
0.0
 20
0.0
 30
0.0
  0
VERTEX
  5
FB
330
FA
100
AcDbEntity
  8
Camada 1
 62
     7
420
 16777215
370
    18
100
AcDbVertex
100
AcDb2dVertex
 10
908.0754938872614
 20
-34.70936965297302
 30
0.0
  0
VERTEX
  5
FC
330
FA
100
AcDbEntity
  8
Camada 1
 62
     7
420
 16777215
370
    18
100
AcDbVertex
100
AcDb2dVertex
 10
902.0689268274913
 20
-35.71044979261229
 30
0.0
  0
VERTEX
  5
FD
330
FA
100
AcDbEntity
  8
Camada 1
 62
     7
420
 16777215
370
    18
100
AcDbVertex
100
AcDb2dVertex
 10
902.0689268274913
 20
-33.7082464023598
 30
0.0
  0
VERTEX
  5
FE
330
FA
100
AcDbEntity
  8
Camada 1
 62
     7
420
 16777215
370
    18
100
AcDbVertex
100
AcDb2dVertex
 10
908.0754938872614
 20
-34.70936965297302
 30
0.0
  0
SEQEND
  5
FF
330
FA
100
AcDbEntity
  8
Camada 1
 62
     7
420
 16777215
370
    18
  0
MTEXT
  5
100
330
1F
100
AcDbEntity
  8
Camada 1
 62
     7
420
 16777215
100
AcDbMText
 10
683.5600431534746
 20
480.2683592549329
 30
0.0
 40
10.48466241549
 41
0.0
 46
0.0
 71
     7
 72
     1
  1
\fHelvetica Light|b0|i0|c0|p34;\W1;30
 73
     1
 44
1.0
  0
POLYLINE
  5
101
330
1F
100
AcDbEntity
  8
Camada 1
370
     0
100
AcDb2dPolyline
 66
     1
 10
0.0
 20
0.0
 30
0.0
  0
VERTEX
  5
102
330
101
100
AcDbEntity
  8
Camada 1
370
     0
100
AcDbVertex
100
AcDb2dVertex
 10
677.8229231170308
 20
473.8485239205563
 30
0.0
  0
VERTEX
  5
103
330
101
100
AcDbEntity
  8
Camada 1
370
     0
100
AcDbVertex
100
AcDb2dVertex
 10
683.8294901768053
 20
474.8495609492069
 30
0.0
  0
VERTEX
  5
104
330
101
100
AcDbEntity
  8
Camada 1
370
     0
100
AcDbVertex
100
AcDb2dVertex
 10
683.8294901768053
 20
472.8474006699315
 30
0.0
  0
VERTEX
  5
105
330
101
100
AcDbEntity
  8
Camada 1
370
     0
100
AcDbVertex
100
AcDb2dVertex
 10
677.8229231170308
 20
473.8485239205563
 30
0.0
  0
SEQEND
  5
107
330
101
100
AcDbEntity
  8
Camada 1
370
     0
  0
HATCH
  5
106
330
1F
100
AcDbEntity
  8
Camada 1
 62
     7
420
 16777215
100
AcDbHatch
 10
0.0
 20
0.0
 30
0.0
210
0.0
220
0.0
230
1.0
  2
SOLID
 70
     1
 71
     0
 91
        1
 92
        1
 93
        3
 72
     1
 10
677.8229231170308
 20
473.8485239205563
 11
683.8294901768053
 21
474.8495609492069
 72
     1
 10
683.8294901768053
 20
474.8495609492069
 11
683.8294901768053
 21
472.8474006699315
 72
     1
 10
683.8294901768053
 20
472.8474006699315
 11
677.8229231170308
 21
473.8485239205563
 97
        0
 75
     2
 76
     1
 98
        0
  0
POLYLINE
  5
108
330
1F
100
AcDbEntity
  8
Camada 1
 62
     7
420
 16777215
370
    18
100
AcDb2dPolyline
 66
     1
 10
0.0
 20
0.0
 30
0.0
  0
VERTEX
  5
109
330
108
100
AcDbEntity
  8
Camada 1
 62
     7
420
 16777215
370
    18
100
AcDbVertex
100
AcDb2dVertex
 10
677.8229231170308
 20
473.8485239205563
 30
0.0
  0
VERTEX
  5
10A
330
108
100
AcDbEntity
  8
Camada 1
 62
     7
420
 16777215
370
    18
100
AcDbVertex
100
AcDb2dVertex
 10
683.8294901768053
 20
474.8495609492069
 30
0.0
  0
VERTEX
  5
10B
330
108
100
AcDbEntity
  8
Camada 1
 62
     7
420
 16777215
370
    18
100
AcDbVertex
100
AcDb2dVertex
 10
683.8294901768053
 20
472.8474006699315
 30
0.0
  0
VERTEX
  5
10C
330
108
100
AcDbEntity
  8
Camada 1
 62
     7
420
 16777215
370
    18
100
AcDbVertex
100
AcDb2dVertex
 10
677.8229231170308
 20
473.8485239205563
 30
0.0
  0
SEQEND
  5
10D
330
108
100
AcDbEntity
  8
Camada 1
 62
     7
420
 16777215
370
    18
  0
POLYLINE
  5
10E
330
1F
100
AcDbEntity
  8
Camada 1
370
     0
100
AcDb2dPolyline
 66
     1
 10
0.0
 20
0.0
 30
0.0
  0
VERTEX
  5
10F
330
10E
100
AcDbEntity
  8
Camada 1
370
     0
100
AcDbVertex
100
AcDb2dVertex
 10
707.8558446378546
 20
473.8485239205563
 30
0.0
  0
VERTEX
  5
110
330
10E
100
AcDbEntity
  8
Camada 1
370
     0
100
AcDbVertex
100
AcDb2dVertex
 10
701.8492775780833
 20
472.8474006699315
 30
0.0
  0
VERTEX
  5
111
330
10E
100
AcDbEntity
  8
Camada 1
370
     0
100
AcDbVertex
100
AcDb2dVertex
 10
701.8492775780833
 20
474.8495609492069
 30
0.0
  0
VERTEX
  5
112
330
10E
100
AcDbEntity
  8
Camada 1
370
     0
100
AcDbVertex
100
AcDb2dVertex
 10
707.8558446378546
 20
473.8485239205563
 30
0.0
  0
SEQEND
  5
114
330
10E
100
AcDbEntity
  8
Camada 1
370
     0
  0
HATCH
  5
113
330
1F
100
AcDbEntity
  8
Camada 1
 62
     7
420
 16777215
100
AcDbHatch
 10
0.0
 20
0.0
 30
0.0
210
0.0
220
0.0
230
1.0
  2
SOLID
 70
     1
 71
     0
 91
        1
 92
        1
 93
        3
 72
     1
 10
707.8558446378546
 20
473.8485239205563
 11
701.8492775780833
 21
472.8474006699315
 72
     1
 10
701.8492775780833
 20
472.8474006699315
 11
701.8492775780833
 21
474.8495609492069
 72
     1
 10
701.8492775780833
 20
474.8495609492069
 11
707.8558446378546
 21
473.8485239205563
 97
        0
 75
     2
 76
     1
 98
        0
  0
POLYLINE
  5
115
330
1F
100
AcDbEntity
  8
Camada 1
 62
     7
420
 16777215
370
    18
100
AcDb2dPolyline
 66
     1
 10
0.0
 20
0.0
 30
0.0
  0
VERTEX
  5
116
330
115
100
AcDbEntity
  8
Camada 1
 62
     7
420
 16777215
370
    18
100
AcDbVertex
100
AcDb2dVertex
 10
707.8558446378546
 20
473.8485239205563
 30
0.0
  0
VERTEX
  5
117
330
115
100
AcDbEntity
  8
Camada 1
 62
     7
420
 16777215
370
    18
100
AcDbVertex
100
AcDb2dVertex
 10
701.8492775780833
 20
472.8474006699315
 30
0.0
  0
VERTEX
  5
118
330
115
100
AcDbEntity
  8
Camada 1
 62
     7
420
 16777215
370
    18
100
AcDbVertex
100
AcDb2dVertex
 10
701.8492775780833
 20
474.8495609492069
 30
0.0
  0
VERTEX
  5
119
330
115
100
AcDbEntity
  8
Camada 1
 62
     7
420
 16777215
370
    18
100
AcDbVertex
100
AcDb2dVertex
 10
707.8558446378546
 20
473.8485239205563
 30
0.0
  0
SEQEND
  5
11A
330
115
100
AcDbEntity
  8
Camada 1
 62
     7
420
 16777215
370
    18
  0
MTEXT
  5
11B
330
1F
100
AcDbEntity
  8
Camada 1
 62
     7
420
 16777215
100
AcDbMText
 10
924.9833775115216
 20
-259.762955664226
 30
0.0
 40
10.48466241549
 41
0.0
 46
0.0
 71
     7
 72
     1
  1
\fHelvetica Light|b0|i0|c0|p34;\W1;154
 11
6.123233995736766E-17
 21
1.0
 31
0.0
 73
     1
 44
1.0
  0
POLYLINE
  5
11C
330
1F
100
AcDbEntity
  8
Camada 1
370
     0
100
AcDb2dPolyline
 66
     1
 10
0.0
 20
0.0
 30
0.0
  0
VERTEX
  5
11D
330
11C
100
AcDbEntity
  8
Camada 1
370
     0
100
AcDbVertex
100
AcDb2dVertex
 10
932.1018483483133
 20
-331.1965340432077
 30
0.0
  0
VERTEX
  5
11E
330
11C
100
AcDbEntity
  8
Camada 1
370
     0
100
AcDbVertex
100
AcDb2dVertex
 10
931.1007250976897
 20
-325.1899238724566
 30
0.0
  0
VERTEX
  5
11F
330
11C
100
AcDbEntity
  8
Camada 1
370
     0
100
AcDbVertex
100
AcDb2dVertex
 10
933.1029715989284
 20
-325.1899238724566
 30
0.0
  0
VERTEX
  5
120
330
11C
100
AcDbEntity
  8
Camada 1
370
     0
100
AcDbVertex
100
AcDb2dVertex
 10
932.1018483483133
 20
-331.1965340432077
 30
0.0
  0
SEQEND
  5
122
330
11C
100
AcDbEntity
  8
Camada 1
370
     0
  0
HATCH
  5
121
330
1F
100
AcDbEntity
  8
Camada 1
 62
     7
420
 16777215
100
AcDbHatch
 10
0.0
 20
0.0
 30
0.0
210
0.0
220
0.0
230
1.0
  2
SOLID
 70
     1
 71
     0
 91
        1
 92
        1
 93
        3
 72
     1
 10
932.1018483483133
 20
-331.1965340432077
 11
931.1007250976897
 21
-325.1899238724566
 72
     1
 10
931.1007250976897
 20
-325.1899238724566
 11
933.1029715989284
 21
-325.1899238724566
 72
     1
 10
933.1029715989284
 20
-325.1899238724566
 11
932.1018483483133
 21
-331.1965340432077
 97
        0
 75
     2
 76
     1
 98
        0
  0
POLYLINE
  5
123
330
1F
100
AcDbEntity
  8
Camada 1
 62
     7
420
 16777215
370
    18
100
AcDb2dPolyline
 66
     1
 10
0.0
 20
0.0
 30
0.0
  0
VERTEX
  5
124
330
123
100
AcDbEntity
  8
Camada 1
 62
     7
420
 16777215
370
    18
100
AcDbVertex
100
AcDb2dVertex
 10
932.1018483483133
 20
-331.1965340432077
 30
0.0
  0
VERTEX
  5
125
330
123
100
AcDbEntity
  8
Camada 1
 62
     7
420
 16777215
370
    18
100
AcDbVertex
100
AcDb2dVertex
 10
931.1007250976897
 20
-325.1899238724566
 30
0.0
  0
VERTEX
  5
126
330
123
100
AcDbEntity
  8
Camada 1
 62
     7
420
 16777215
370
    18
100
AcDbVertex
100
AcDb2dVertex
 10
933.1029715989284
 20
-325.1899238724566
 30
0.0
  0
VERTEX
  5
127
330
123
100
AcDbEntity
  8
Camada 1
 62
     7
420
 16777215
370
    18
100
AcDbVertex
100
AcDb2dVertex
 10
932.1018483483133
 20
-331.1965340432077
 30
0.0
  0
SEQEND
  5
128
330
123
100
AcDbEntity
  8
Camada 1
 62
     7
420
 16777215
370
    18
  0
POLYLINE
  5
129
330
1F
100
AcDbEntity
  8
Camada 1
370
     0
100
AcDb2dPolyline
 66
     1
 10
0.0
 20
0.0
 30
0.0
  0
VERTEX
  5
12A
330
129
100
AcDbEntity
  8
Camada 1
370
     0
100
AcDbVertex
100
AcDb2dVertex
 10
932.1018483483133
 20
-177.212336443348
 30
0.0
  0
VERTEX
  5
12B
330
129
100
AcDbEntity
  8
Camada 1
370
     0
100
AcDbVertex
100
AcDb2dVertex
 10
933.1029715989284
 20
-183.2189035031206
 30
0.0
  0
VERTEX
  5
12C
330
129
100
AcDbEntity
  8
Camada 1
370
     0
100
AcDbVertex
100
AcDb2dVertex
 10
931.1007250976897
 20
-183.2189035031206
 30
0.0
  0
VERTEX
  5
12D
330
129
100
AcDbEntity
  8
Camada 1
370
     0
100
AcDbVertex
100
AcDb2dVertex
 10
932.1018483483133
 20
-177.212336443348
 30
0.0
  0
SEQEND
  5
12F
330
129
100
AcDbEntity
  8
Camada 1
370
     0
  0
HATCH
  5
12E
330
1F
100
AcDbEntity
  8
Camada 1
 62
     7
420
 16777215
100
AcDbHatch
 10
0.0
 20
0.0
 30
0.0
210
0.0
220
0.0
230
1.0
  2
SOLID
 70
     1
 71
     0
 91
        1
 92
        1
 93
        3
 72
     1
 10
932.1018483483133
 20
-177.212336443348
 11
933.1029715989284
 21
-183.2189035031206
 72
     1
 10
933.1029715989284
 20
-183.2189035031206
 11
931.1007250976897
 21
-183.2189035031206
 72
     1
 10
931.1007250976897
 20
-183.2189035031206
 11
932.1018483483133
 21
-177.212336443348
 97
        0
 75
     2
 76
     1
 98
        0
  0
POLYLINE
  5
130
330
1F
100
AcDbEntity
  8
Camada 1
 62
     7
420
 16777215
370
    18
100
AcDb2dPolyline
 66
     1
 10
0.0
 20
0.0
 30
0.0
  0
VERTEX
  5
131
330
130
100
AcDbEntity
  8
Camada 1
 62
     7
420
 16777215
370
    18
100
AcDbVertex
100
AcDb2dVertex
 10
932.1018483483133
 20
-177.212336443348
 30
0.0
  0
VERTEX
  5
132
330
130
100
AcDbEntity
  8
Camada 1
 62
     7
420
 16777215
370
    18
100
AcDbVertex
100
AcDb2dVertex
 10
933.1029715989284
 20
-183.2189035031206
 30
0.0
  0
VERTEX
  5
133
330
130
100
AcDbEntity
  8
Camada 1
 62
     7
420
 16777215
370
    18
100
AcDbVertex
100
AcDb2dVertex
 10
931.1007250976897
 20
-183.2189035031206
 30
0.0
  0
VERTEX
  5
134
330
130
100
AcDbEntity
  8
Camada 1
 62
     7
420
 16777215
370
    18
100
AcDbVertex
100
AcDb2dVertex
 10
932.1018483483133
 20
-177.212336443348
 30
0.0
  0
SEQEND
  5
135
330
130
100
AcDbEntity
  8
Camada 1
 62
     7
420
 16777215
370
    18
  0
MTEXT
  5
136
330
1F
100
AcDbEntity
  8
Camada 1
 62
     7
420
 16777215
100
AcDbMText
 10
951.1013354042976
 20
-290.7977538335506
 30
0.0
 40
10.48466241549
 41
0.0
 46
0.0
 71
     7
 72
     1
  1
\fHelvetica Light|b0|i0|c0|p34;\W1;216
 11
6.123233995736766E-17
 21
1.0
 31
0.0
 73
     1
 44
1.0
  0
POLYLINE
  5
137
330
1F
100
AcDbEntity
  8
Camada 1
370
     0
100
AcDb2dPolyline
 66
     1
 10
0.0
 20
0.0
 30
0.0
  0
VERTEX
  5
138
330
137
100
AcDbEntity
  8
Camada 1
370
     0
100
AcDbVertex
100
AcDb2dVertex
 10
956.1282028093646
 20
-393.2646020305872
 30
0.0
  0
VERTEX
  5
139
330
137
100
AcDbEntity
  8
Camada 1
370
     0
100
AcDbVertex
100
AcDb2dVertex
 10
955.1270795587404
 20
-387.2580134153321
 30
0.0
  0
VERTEX
  5
13A
330
137
100
AcDbEntity
  8
Camada 1
370
     0
100
AcDbVertex
100
AcDb2dVertex
 10
957.1293260599804
 20
-387.2580134153321
 30
0.0
  0
VERTEX
  5
13B
330
137
100
AcDbEntity
  8
Camada 1
370
     0
100
AcDbVertex
100
AcDb2dVertex
 10
956.1282028093646
 20
-393.2646020305872
 30
0.0
  0
SEQEND
  5
13D
330
137
100
AcDbEntity
  8
Camada 1
370
     0
  0
HATCH
  5
13C
330
1F
100
AcDbEntity
  8
Camada 1
 62
     7
420
 16777215
100
AcDbHatch
 10
0.0
 20
0.0
 30
0.0
210
0.0
220
0.0
230
1.0
  2
SOLID
 70
     1
 71
     0
 91
        1
 92
        1
 93
        3
 72
     1
 10
956.1282028093646
 20
-393.2646020305872
 11
955.1270795587404
 21
-387.2580134153321
 72
     1
 10
955.1270795587404
 20
-387.2580134153321
 11
957.1293260599804
 21
-387.2580134153321
 72
     1
 10
957.1293260599804
 20
-387.2580134153321
 11
956.1282028093646
 21
-393.2646020305872
 97
        0
 75
     2
 76
     1
 98
        0
  0
POLYLINE
  5
13E
330
1F
100
AcDbEntity
  8
Camada 1
 62
     7
420
 16777215
370
    18
100
AcDb2dPolyline
 66
     1
 10
0.0
 20
0.0
 30
0.0
  0
VERTEX
  5
13F
330
13E
100
AcDbEntity
  8
Camada 1
 62
     7
420
 16777215
370
    18
100
AcDbVertex
100
AcDb2dVertex
 10
956.1282028093646
 20
-393.2646020305872
 30
0.0
  0
VERTEX
  5
140
330
13E
100
AcDbEntity
  8
Camada 1
 62
     7
420
 16777215
370
    18
100
AcDbVertex
100
AcDb2dVertex
 10
955.1270795587404
 20
-387.2580134153321
 30
0.0
  0
VERTEX
  5
141
330
13E
100
AcDbEntity
  8
Camada 1
 62
     7
420
 16777215
370
    18
100
AcDbVertex
100
AcDb2dVertex
 10
957.1293260599804
 20
-387.2580134153321
 30
0.0
  0
VERTEX
  5
142
330
13E
100
AcDbEntity
  8
Camada 1
 62
     7
420
 16777215
370
    18
100
AcDbVertex
100
AcDb2dVertex
 10
956.1282028093646
 20
-393.2646020305872
 30
0.0
  0
SEQEND
  5
143
330
13E
100
AcDbEntity
  8
Camada 1
 62
     7
420
 16777215
370
    18
  0
POLYLINE
  5
144
330
1F
100
AcDbEntity
  8
Camada 1
370
     0
100
AcDb2dPolyline
 66
     1
 10
0.0
 20
0.0
 30
0.0
  0
VERTEX
  5
145
330
144
100
AcDbEntity
  8
Camada 1
370
     0
100
AcDbVertex
100
AcDb2dVertex
 10
956.1282028093646
 20
-177.212336443348
 30
0.0
  0
VERTEX
  5
146
330
144
100
AcDbEntity
  8
Camada 1
370
     0
100
AcDbVertex
100
AcDb2dVertex
 10
957.1293260599804
 20
-183.2189035031206
 30
0.0
  0
VERTEX
  5
147
330
144
100
AcDbEntity
  8
Camada 1
370
     0
100
AcDbVertex
100
AcDb2dVertex
 10
955.1270795587404
 20
-183.2189035031206
 30
0.0
  0
VERTEX
  5
148
330
144
100
AcDbEntity
  8
Camada 1
370
     0
100
AcDbVertex
100
AcDb2dVertex
 10
956.1282028093646
 20
-177.212336443348
 30
0.0
  0
SEQEND
  5
14A
330
144
100
AcDbEntity
  8
Camada 1
370
     0
  0
HATCH
  5
149
330
1F
100
AcDbEntity
  8
Camada 1
 62
     7
420
 16777215
100
AcDbHatch
 10
0.0
 20
0.0
 30
0.0
210
0.0
220
0.0
230
1.0
  2
SOLID
 70
     1
 71
     0
 91
        1
 92
        1
 93
        3
 72
     1
 10
956.1282028093646
 20
-177.212336443348
 11
957.1293260599804
 21
-183.2189035031206
 72
     1
 10
957.1293260599804
 20
-183.2189035031206
 11
955.1270795587404
 21
-183.2189035031206
 72
     1
 10
955.1270795587404
 20
-183.2189035031206
 11
956.1282028093646
 21
-177.212336443348
 97
        0
 75
     2
 76
     1
 98
        0
  0
POLYLINE
  5
14B
330
1F
100
AcDbEntity
  8
Camada 1
 62
     7
420
 16777215
370
    18
100
AcDb2dPolyline
 66
     1
 10
0.0
 20
0.0
 30
0.0
  0
VERTEX
  5
14C
330
14B
100
AcDbEntity
  8
Camada 1
 62
     7
420
 16777215
370
    18
100
AcDbVertex
100
AcDb2dVertex
 10
956.1282028093646
 20
-177.212336443348
 30
0.0
  0
VERTEX
  5
14D
330
14B
100
AcDbEntity
  8
Camada 1
 62
     7
420
 16777215
370
    18
100
AcDbVertex
100
AcDb2dVertex
 10
957.1293260599804
 20
-183.2189035031206
 30
0.0
  0
VERTEX
  5
14E
330
14B
100
AcDbEntity
  8
Camada 1
 62
     7
420
 16777215
370
    18
100
AcDbVertex
100
AcDb2dVertex
 10
955.1270795587404
 20
-183.2189035031206
 30
0.0
  0
VERTEX
  5
14F
330
14B
100
AcDbEntity
  8
Camada 1
 62
     7
420
 16777215
370
    18
100
AcDbVertex
100
AcDb2dVertex
 10
956.1282028093646
 20
-177.212336443348
 30
0.0
  0
SEQEND
  5
150
330
14B
100
AcDbEntity
  8
Camada 1
 62
     7
420
 16777215
370
    18
  0
MTEXT
  5
151
330
1F
100
AcDbEntity
  8
Camada 1
 62
     7
420
 16777215
100
AcDbMText
 10
629.7166458145049
 20
-31.07441676740501
 30
0.0
 40
10.48466241549
 41
0.0
 46
0.0
 71
     7
 72
     1
  1
\fHelvetica Light|b0|i0|c0|p34;\W1;315
 73
     1
 44
1.0
  0
POLYLINE
  5
152
330
1F
100
AcDbEntity
  8
Camada 1
370
     0
100
AcDb2dPolyline
 66
     1
 10
0.0
 20
0.0
 30
0.0
  0
VERTEX
  5
153
330
152
100
AcDbEntity
  8
Camada 1
370
     0
100
AcDbVertex
100
AcDb2dVertex
 10
477.6033169786214
 20
-34.70936965297302
 30
0.0
  0
VERTEX
  5
154
330
152
100
AcDbEntity
  8
Camada 1
370
     0
100
AcDbVertex
100
AcDb2dVertex
 10
483.6098840383931
 20
-33.7082464023598
 30
0.0
  0
VERTEX
  5
155
330
152
100
AcDbEntity
  8
Camada 1
370
     0
100
AcDbVertex
100
AcDb2dVertex
 10
483.6098840383931
 20
-35.71044979261229
 30
0.0
  0
VERTEX
  5
156
330
152
100
AcDbEntity
  8
Camada 1
370
     0
100
AcDbVertex
100
AcDb2dVertex
 10
477.6033169786214
 20
-34.70936965297302
 30
0.0
  0
SEQEND
  5
158
330
152
100
AcDbEntity
  8
Camada 1
370
     0
  0
HATCH
  5
157
330
1F
100
AcDbEntity
  8
Camada 1
 62
     7
420
 16777215
100
AcDbHatch
 10
0.0
 20
0.0
 30
0.0
210
0.0
220
0.0
230
1.0
  2
SOLID
 70
     1
 71
     0
 91
        1
 92
        1
 93
        3
 72
     1
 10
477.6033169786214
 20
-34.70936965297302
 11
483.6098840383931
 21
-33.7082464023598
 72
     1
 10
483.6098840383931
 20
-33.7082464023598
 11
483.6098840383931
 21
-35.71044979261229
 72
     1
 10
483.6098840383931
 20
-35.71044979261229
 11
477.6033169786214
 21
-34.70936965297302
 97
        0
 75
     2
 76
     1
 98
        0
  0
POLYLINE
  5
159
330
1F
100
AcDbEntity
  8
Camada 1
 62
     7
420
 16777215
370
    18
100
AcDb2dPolyline
 66
     1
 10
0.0
 20
0.0
 30
0.0
  0
VERTEX
  5
15A
330
159
100
AcDbEntity
  8
Camada 1
 62
     7
420
 16777215
370
    18
100
AcDbVertex
100
AcDb2dVertex
 10
477.6033169786214
 20
-34.70936965297302
 30
0.0
  0
VERTEX
  5
15B
330
159
100
AcDbEntity
  8
Camada 1
 62
     7
420
 16777215
370
    18
100
AcDbVertex
100
AcDb2dVertex
 10
483.6098840383931
 20
-33.7082464023598
 30
0.0
  0
VERTEX
  5
15C
330
159
100
AcDbEntity
  8
Camada 1
 62
     7
420
 16777215
370
    18
100
AcDbVertex
100
AcDb2dVertex
 10
483.6098840383931
 20
-35.71044979261229
 30
0.0
  0
VERTEX
  5
15D
330
159
100
AcDbEntity
  8
Camada 1
 62
     7
420
 16777215
370
    18
100
AcDbVertex
100
AcDb2dVertex
 10
477.6033169786214
 20
-34.70936965297302
 30
0.0
  0
SEQEND
  5
15E
330
159
100
AcDbEntity
  8
Camada 1
 62
     7
420
 16777215
370
    18
  0
POLYLINE
  5
15F
330
1F
100
AcDbEntity
  8
Camada 1
370
     0
100
AcDb2dPolyline
 66
     1
 10
0.0
 20
0.0
 30
0.0
  0
VERTEX
  5
160
330
15F
100
AcDbEntity
  8
Camada 1
370
     0
100
AcDbVertex
100
AcDb2dVertex
 10
792.9492516131296
 20
-34.70936965297302
 30
0.0
  0
VERTEX
  5
161
330
15F
100
AcDbEntity
  8
Camada 1
370
     0
100
AcDbVertex
100
AcDb2dVertex
 10
786.9425983313937
 20
-35.71044979261229
 30
0.0
  0
VERTEX
  5
162
330
15F
100
AcDbEntity
  8
Camada 1
370
     0
100
AcDbVertex
100
AcDb2dVertex
 10
786.9425983313937
 20
-33.7082464023598
 30
0.0
  0
VERTEX
  5
163
330
15F
100
AcDbEntity
  8
Camada 1
370
     0
100
AcDbVertex
100
AcDb2dVertex
 10
792.9492516131296
 20
-34.70936965297302
 30
0.0
  0
SEQEND
  5
165
330
15F
100
AcDbEntity
  8
Camada 1
370
     0
  0
HATCH
  5
164
330
1F
100
AcDbEntity
  8
Camada 1
 62
     7
420
 16777215
100
AcDbHatch
 10
0.0
 20
0.0
 30
0.0
210
0.0
220
0.0
230
1.0
  2
SOLID
 70
     1
 71
     0
 91
        1
 92
        1
 93
        3
 72
     1
 10
792.9492516131296
 20
-34.70936965297302
 11
786.9425983313937
 21
-35.71044979261229
 72
     1
 10
786.9425983313937
 20
-35.71044979261229
 11
786.9425983313937
 21
-33.7082464023598
 72
     1
 10
786.9425983313937
 20
-33.7082464023598
 11
792.9492516131296
 21
-34.70936965297302
 97
        0
 75
     2
 76
     1
 98
        0
  0
POLYLINE
  5
166
330
1F
100
AcDbEntity
  8
Camada 1
 62
     7
420
 16777215
370
    18
100
AcDb2dPolyline
 66
     1
 10
0.0
 20
0.0
 30
0.0
  0
VERTEX
  5
167
330
166
100
AcDbEntity
  8
Camada 1
 62
     7
420
 16777215
370
    18
100
AcDbVertex
100
AcDb2dVertex
 10
792.9492516131296
 20
-34.70936965297302
 30
0.0
  0
VERTEX
  5
168
330
166
100
AcDbEntity
  8
Camada 1
 62
     7
420
 16777215
370
    18
100
AcDbVertex
100
AcDb2dVertex
 10
786.9425983313937
 20
-35.71044979261229
 30
0.0
  0
VERTEX
  5
169
330
166
100
AcDbEntity
  8
Camada 1
 62
     7
420
 16777215
370
    18
100
AcDbVertex
100
AcDb2dVertex
 10
786.9425983313937
 20
-33.7082464023598
 30
0.0
  0
VERTEX
  5
16A
330
166
100
AcDbEntity
  8
Camada 1
 62
     7
420
 16777215
370
    18
100
AcDbVertex
100
AcDb2dVertex
 10
792.9492516131296
 20
-34.70936965297302
 30
0.0
  0
SEQEND
  5
16B
330
166
100
AcDbEntity
  8
Camada 1
 62
     7
420
 16777215
370
    18
  0
POLYLINE
  5
16C
330
1F
100
AcDbEntity
  8
Camada 1
 62
     7
420
 16777215
370
    53
100
AcDb2dPolyline
 66
     1
 10
0.0
 20
0.0
 30
0.0
  0
VERTEX
  5
16D
330
16C
100
AcDbEntity
  8
Camada 1
 62
     7
420
 16777215
370
    53
100
AcDbVertex
100
AcDb2dVertex
 10
247.3507462083912
 20
-4.67640502117324
 30
0.0
  0
VERTEX
  5
16E
330
16C
100
AcDbEntity
  8
Camada 1
 62
     7
420
 16777215
370
    53
100
AcDbVertex
100
AcDb2dVertex
 10
247.3507462083912
 20
443.8155161777589
 30
0.0
  0
SEQEND
  5
16F
330
16C
100
AcDbEntity
  8
Camada 1
 62
     7
420
 16777215
370
    53
  0
POLYLINE
  5
170
330
1F
100
AcDbEntity
  8
Camada 1
 62
     7
420
 16777215
370
    53
100
AcDb2dPolyline
 66
     1
 10
0.0
 20
0.0
 30
0.0
  0
VERTEX
  5
171
330
170
100
AcDbEntity
  8
Camada 1
 62
     7
420
 16777215
370
    53
100
AcDbVertex
100
AcDb2dVertex
 10
277.3836677292144
 20
407.2754228608811
 30
0.0
  0
VERTEX
  5
172
330
170
100
AcDbEntity
  8
Camada 1
 62
     7
420
 16777215
370
    53
100
AcDbVertex
100
AcDb2dVertex
 10
277.3836677292144
 20
31.86368829570322
 30
0.0
  0
SEQEND
  5
173
330
170
100
AcDbEntity
  8
Camada 1
 62
     7
420
 16777215
370
    53
  0
POLYLINE
  5
174
330
1F
100
AcDbEntity
  8
Camada 1
 62
     7
420
 16777215
370
    53
100
AcDb2dPolyline
 66
     1
 10
0.0
 20
0.0
 30
0.0
  0
VERTEX
  5
175
330
174
100
AcDbEntity
  8
Camada 1
 62
     7
420
 16777215
370
    53
100
AcDbVertex
100
AcDb2dVertex
 10
902.0689268274913
 20
-10.68301519192175
 30
0.0
  0
VERTEX
  5
176
330
174
100
AcDbEntity
  8
Camada 1
 62
     7
420
 16777215
370
    53
100
AcDbVertex
100
AcDb2dVertex
 10
253.3573132681625
 20
-10.68301519192175
 30
0.0
  0
SEQEND
  5
177
330
174
100
AcDbEntity
  8
Camada 1
 62
     7
420
 16777215
370
    53
  0
POLYLINE
  5
178
330
1F
100
AcDbEntity
  8
Camada 1
 62
     7
420
 16777215
370
    53
100
AcDb2dPolyline
 66
     1
 10
0.0
 20
0.0
 30
0.0
  0
VERTEX
  5
179
330
178
100
AcDbEntity
  8
Camada 1
 62
     7
420
 16777215
370
    53
100
AcDbVertex
100
AcDb2dVertex
 10
289.8974065850521
 20
19.34994943987547
 30
0.0
  0
VERTEX
  5
17A
330
178
100
AcDbEntity
  8
Camada 1
 62
     7
420
 16777215
370
    53
100
AcDbVertex
100
AcDb2dVertex
 10
665.3091842612049
 20
19.34994943987547
 30
0.0
  0
SEQEND
  5
17B
330
178
100
AcDbEntity
  8
Camada 1
 62
     7
420
 16777215
370
    53
  0
POLYLINE
  5
17C
330
1F
100
AcDbEntity
  8
Camada 1
 62
     7
420
 16777215
370
    53
100
AcDb2dPolyline
 66
     1
 10
0.0
 20
0.0
 30
0.0
  0
VERTEX
  5
17D
330
17C
100
AcDbEntity
  8
Camada 1
 62
     7
420
 16777215
370
    53
100
AcDbVertex
100
AcDb2dVertex
 10
720.3695834936933
 20
19.34994943987547
 30
0.0
  0
VERTEX
  5
17E
330
17C
100
AcDbEntity
  8
Camada 1
 62
     7
420
 16777215
370
    53
100
AcDbVertex
100
AcDb2dVertex
 10
865.5288335106032
 20
19.34994943987547
 30
0.0
  0
SEQEND
  5
17F
330
17C
100
AcDbEntity
  8
Camada 1
 62
     7
420
 16777215
370
    53
  0
POLYLINE
  5
180
330
1F
100
AcDbEntity
  8
Camada 1
 62
     7
420
 16777215
370
    53
100
AcDb2dPolyline
 66
     1
 10
0.0
 20
0.0
 30
0.0
  0
VERTEX
  5
181
330
180
100
AcDbEntity
  8
Camada 1
 62
     7
420
 16777215
370
    53
100
AcDbVertex
100
AcDb2dVertex
 10
733.8844456001465
 20
40.37302037103753
 30
0.0
  0
VERTEX
  5
182
330
180
100
AcDbEntity
  8
Camada 1
 62
     7
420
 16777215
370
    53
100
AcDbVertex
100
AcDb2dVertex
 10
852.0139714041597
 20
40.37302037103753
 30
0.0
  0
SEQEND
  5
183
330
180
100
AcDbEntity
  8
Camada 1
 62
     7
420
 16777215
370
    53
  0
POLYLINE
  5
184
330
1F
100
AcDbEntity
  8
Camada 1
 62
     7
420
 16777215
370
    53
100
AcDb2dPolyline
 66
     1
 10
0.0
 20
0.0
 30
0.0
  0
VERTEX
  5
185
330
184
100
AcDbEntity
  8
Camada 1
 62
     7
420
 16777215
370
    53
100
AcDbVertex
100
AcDb2dVertex
 10
677.8229231170308
 20
31.86368829570322
 30
0.0
  0
VERTEX
  5
186
330
184
100
AcDbEntity
  8
Camada 1
 62
     7
420
 16777215
370
    53
100
AcDbVertex
100
AcDb2dVertex
 10
677.8229231170308
 20
407.2754228608811
 30
0.0
  0
SEQEND
  5
187
330
184
100
AcDbEntity
  8
Camada 1
 62
     7
420
 16777215
370
    53
  0
POLYLINE
  5
188
330
1F
100
AcDbEntity
  8
Camada 1
 62
     7
420
 16777215
370
    53
100
AcDb2dPolyline
 66
     1
 10
0.0
 20
0.0
 30
0.0
  0
VERTEX
  5
189
330
188
100
AcDbEntity
  8
Camada 1
 62
     7
420
 16777215
370
    53
100
AcDbVertex
100
AcDb2dVertex
 10
707.8558446378546
 20
407.2754228608811
 30
0.0
  0
VERTEX
  5
18A
330
188
100
AcDbEntity
  8
Camada 1
 62
     7
420
 16777215
370
    53
100
AcDbVertex
100
AcDb2dVertex
 10
707.8558446378546
 20
31.86368829570322
 30
0.0
  0
SEQEND
  5
18B
330
188
100
AcDbEntity
  8
Camada 1
 62
     7
420
 16777215
370
    53
  0
POLYLINE
  5
18C
330
1F
100
AcDbEntity
  8
Camada 1
 62
     7
420
 16777215
370
    53
100
AcDb2dPolyline
 66
     1
 10
0.0
 20
0.0
 30
0.0
  0
VERTEX
  5
18D
330
18C
100
AcDbEntity
  8
Camada 1
 62
     7
420
 16777215
370
    53
100
AcDbVertex
100
AcDb2dVertex
 10
725.4661639212148
 20
299.6573894114653
 30
0.0
  0
VERTEX
  5
18E
330
18C
100
AcDbEntity
  8
Camada 1
 62
     7
420
 16777215
370
    53
100
AcDbVertex
100
AcDb2dVertex
 10
728.878915569025
 20
45.37846418019181
 30
0.0
  0
SEQEND
  5
18F
330
18C
100
AcDbEntity
  8
Camada 1
 62
     7
420
 16777215
370
    53
  0
POLYLINE
  5
190
330
1F
100
AcDbEntity
  8
Camada 1
 62
     7
420
 16777215
370
    53
100
AcDb2dPolyline
 66
     1
 10
0.0
 20
0.0
 30
0.0
  0
VERTEX
  5
191
330
190
100
AcDbEntity
  8
Camada 1
 62
     7
420
 16777215
370
    53
100
AcDbVertex
100
AcDb2dVertex
 10
728.878915569025
 20
393.7606469764021
 30
0.0
  0
VERTEX
  5
192
330
190
100
AcDbEntity
  8
Camada 1
 62
     7
420
 16777215
370
    53
100
AcDbVertex
100
AcDb2dVertex
 10
725.4661639212148
 20
299.6573894114653
 30
0.0
  0
SEQEND
  5
193
330
190
100
AcDbEntity
  8
Camada 1
 62
     7
420
 16777215
370
    53
  0
POLYLINE
  5
194
330
1F
100
AcDbEntity
  8
Camada 1
 62
     7
420
 16777215
370
    53
100
AcDb2dPolyline
 66
     1
 10
0.0
 20
0.0
 30
0.0
  0
VERTEX
  5
195
330
194
100
AcDbEntity
  8
Camada 1
 62
     7
420
 16777215
370
    53
100
AcDbVertex
100
AcDb2dVertex
 10
852.0139714041597
 20
398.7660907855487
 30
0.0
  0
VERTEX
  5
196
330
194
100
AcDbEntity
  8
Camada 1
 62
     7
420
 16777215
370
    53
100
AcDbVertex
100
AcDb2dVertex
 10
733.8844456001465
 20
398.7660907855487
 30
0.0
  0
SEQEND
  5
197
330
194
100
AcDbEntity
  8
Camada 1
 62
     7
420
 16777215
370
    53
  0
POLYLINE
  5
198
330
1F
100
AcDbEntity
  8
Camada 1
 62
     7
420
 16777215
370
    53
100
AcDb2dPolyline
 66
     1
 10
0.0
 20
0.0
 30
0.0
  0
VERTEX
  5
199
330
198
100
AcDbEntity
  8
Camada 1
 62
     7
420
 16777215
370
    53
100
AcDbVertex
100
AcDb2dVertex
 10
865.5288335106032
 20
419.7891617167185
 30
0.0
  0
VERTEX
  5
19A
330
198
100
AcDbEntity
  8
Camada 1
 62
     7
420
 16777215
370
    53
100
AcDbVertex
100
AcDb2dVertex
 10
720.3695834936933
 20
419.7891617167185
 30
0.0
  0
SEQEND
  5
19B
330
198
100
AcDbEntity
  8
Camada 1
 62
     7
420
 16777215
370
    53
  0
POLYLINE
  5
19C
330
1F
100
AcDbEntity
  8
Camada 1
 62
     7
420
 16777215
370
    53
100
AcDb2dPolyline
 66
     1
 10
0.0
 20
0.0
 30
0.0
  0
VERTEX
  5
19D
330
19C
100
AcDbEntity
  8
Camada 1
 62
     7
420
 16777215
370
    53
100
AcDbVertex
100
AcDb2dVertex
 10
665.3091842612049
 20
419.7891617167185
 30
0.0
  0
VERTEX
  5
19E
330
19C
100
AcDbEntity
  8
Camada 1
 62
     7
420
 16777215
370
    53
100
AcDbVertex
100
AcDb2dVertex
 10
289.8974065850521
 20
419.7891617167185
 30
0.0
  0
SEQEND
  5
19F
330
19C
100
AcDbEntity
  8
Camada 1
 62
     7
420
 16777215
370
    53
  0
POLYLINE
  5
1A0
330
1F
100
AcDbEntity
  8
Camada 1
 62
     7
420
 16777215
370
    53
100
AcDb2dPolyline
 66
     1
 10
0.0
 20
0.0
 30
0.0
  0
VERTEX
  5
1A1
330
1A0
100
AcDbEntity
  8
Camada 1
 62
     7
420
 16777215
370
    53
100
AcDbVertex
100
AcDb2dVertex
 10
253.3573132681625
 20
449.822169459507
 30
0.0
  0
VERTEX
  5
1A2
330
1A0
100
AcDbEntity
  8
Camada 1
 62
     7
420
 16777215
370
    53
100
AcDbVertex
100
AcDb2dVertex
 10
902.0689268274913
 20
449.822169459507
 30
0.0
  0
SEQEND
  5
1A3
330
1A0
100
AcDbEntity
  8
Camada 1
 62
     7
420
 16777215
370
    53
  0
POLYLINE
  5
1A4
330
1F
100
AcDbEntity
  8
Camada 1
 62
     7
420
 16777215
370
    53
100
AcDb2dPolyline
 66
     1
 10
0.0
 20
0.0
 30
0.0
  0
VERTEX
  5
1A5
330
1A4
100
AcDbEntity
  8
Camada 1
 62
     7
420
 16777215
370
    53
100
AcDbVertex
100
AcDb2dVertex
 10
860.4322530830837
 20
299.6573894114653
 30
0.0
  0
VERTEX
  5
1A6
330
1A4
100
AcDbEntity
  8
Camada 1
 62
     7
420
 16777215
370
    53
100
AcDbVertex
100
AcDb2dVertex
 10
857.0195014352798
 20
393.7606469764021
 30
0.0
  0
SEQEND
  5
1A7
330
1A4
100
AcDbEntity
  8
Camada 1
 62
     7
420
 16777215
370
    53
  0
POLYLINE
  5
1A8
330
1F
100
AcDbEntity
  8
Camada 1
 62
     7
420
 16777215
370
    53
100
AcDb2dPolyline
 66
     1
 10
0.0
 20
0.0
 30
0.0
  0
VERTEX
  5
1A9
330
1A8
100
AcDbEntity
  8
Camada 1
 62
     7
420
 16777215
370
    53
100
AcDbVertex
100
AcDb2dVertex
 10
857.0195014352798
 20
45.37846418019181
 30
0.0
  0
VERTEX
  5
1AA
330
1A8
100
AcDbEntity
  8
Camada 1
 62
     7
420
 16777215
370
    53
100
AcDbVertex
100
AcDb2dVertex
 10
860.4322530830837
 20
299.6573894114653
 30
0.0
  0
SEQEND
  5
1AB
330
1A8
100
AcDbEntity
  8
Camada 1
 62
     7
420
 16777215
370
    53
  0
POLYLINE
  5
1AC
330
1F
100
AcDbEntity
  8
Camada 1
 62
     7
420
 16777215
370
    53
100
AcDb2dPolyline
 66
     1
 10
0.0
 20
0.0
 30
0.0
  0
VERTEX
  5
1AD
330
1AC
100
AcDbEntity
  8
Camada 1
 62
     7
420
 16777215
370
    53
100
AcDbVertex
100
AcDb2dVertex
 10
878.04257236644
 20
31.86368829570322
 30
0.0
  0
VERTEX
  5
1AE
330
1AC
100
AcDbEntity
  8
Camada 1
 62
     7
420
 16777215
370
    53
100
AcDbVertex
100
AcDb2dVertex
 10
878.04257236644
 20
407.2754228608811
 30
0.0
  0
SEQEND
  5
1AF
330
1AC
100
AcDbEntity
  8
Camada 1
 62
     7
420
 16777215
370
    53
  0
POLYLINE
  5
1B0
330
1F
100
AcDbEntity
  8
Camada 1
 62
     7
420
 16777215
370
    53
100
AcDb2dPolyline
 66
     1
 10
0.0
 20
0.0
 30
0.0
  0
VERTEX
  5
1B1
330
1B0
100
AcDbEntity
  8
Camada 1
 62
     7
420
 16777215
370
    53
100
AcDbVertex
100
AcDb2dVertex
 10
908.0754938872614
 20
443.8155161777589
 30
0.0
  0
VERTEX
  5
1B2
330
1B0
100
AcDbEntity
  8
Camada 1
 62
     7
420
 16777215
370
    53
100
AcDbVertex
100
AcDb2dVertex
 10
908.0754938872614
 20
-4.67640502117324
 30
0.0
  0
SEQEND
  5
1B3
330
1B0
100
AcDbEntity
  8
Camada 1
 62
     7
420
 16777215
370
    53
  0
POLYLINE
  5
1B4
330
1F
100
AcDbEntity
  8
Camada 1
 62
     7
420
 16777215
370
    53
100
AcDb2dPolyline
 66
     1
 10
0.0
 20
0.0
 30
0.0
  0
VERTEX
  5
1B5
330
1B4
100
AcDbEntity
  8
Camada 1
 62
     7
420
 16777215
370
    53
100
AcDbVertex
100
AcDb2dVertex
 10
247.3507462083912
 20
-177.212336443348
 30
0.0
  0
VERTEX
  5
1B6
330
1B4
100
AcDbEntity
  8
Camada 1
 62
     7
420
 16777215
370
    53
100
AcDbVertex
100
AcDb2dVertex
 10
247.3507462083912
 20
-178.213416582986
 30
0.0
  0
SEQEND
  5
1B7
330
1B4
100
AcDbEntity
  8
Camada 1
 62
     7
420
 16777215
370
    53
  0
POLYLINE
  5
1B8
330
1F
100
AcDbEntity
  8
Camada 1
 62
     7
420
 16777215
370
    53
100
AcDb2dPolyline
 66
     1
 10
0.0
 20
0.0
 30
0.0
  0
VERTEX
  5
1B9
330
1B8
100
AcDbEntity
  8
Camada 1
 62
     7
420
 16777215
370
    53
100
AcDbVertex
100
AcDb2dVertex
 10
269.3748972791874
 20
-181.2167001128675
 30
0.0
  0
VERTEX
  5
1BA
330
1B8
100
AcDbEntity
  8
Camada 1
 62
     7
420
 16777215
370
    53
100
AcDbVertex
100
AcDb2dVertex
 10
269.3748972791874
 20
-182.2178233634839
 30
0.0
  0
SEQEND
  5
1BB
330
1B8
100
AcDbEntity
  8
Camada 1
 62
     7
420
 16777215
370
    53
  0
POLYLINE
  5
1BC
330
1F
100
AcDbEntity
  8
Camada 1
 62
     7
420
 16777215
370
    53
100
AcDb2dPolyline
 66
     1
 10
0.0
 20
0.0
 30
0.0
  0
VERTEX
  5
1BD
330
1BC
100
AcDbEntity
  8
Camada 1
 62
     7
420
 16777215
370
    53
100
AcDbVertex
100
AcDb2dVertex
 10
271.3771006694405
 20
-181.2167001128675
 30
0.0
  0
VERTEX
  5
1BE
330
1BC
100
AcDbEntity
  8
Camada 1
 62
     7
420
 16777215
370
    53
100
AcDbVertex
100
AcDb2dVertex
 10
271.3771006694405
 20
-182.2178233634839
 30
0.0
  0
SEQEND
  5
1BF
330
1BC
100
AcDbEntity
  8
Camada 1
 62
     7
420
 16777215
370
    53
  0
POLYLINE
  5
1C0
330
1F
100
AcDbEntity
  8
Camada 1
 62
     7
420
 16777215
370
    53
100
AcDb2dPolyline
 66
     1
 10
0.0
 20
0.0
 30
0.0
  0
VERTEX
  5
1C1
330
1C0
100
AcDbEntity
  8
Camada 1
 62
     7
420
 16777215
370
    53
100
AcDbVertex
100
AcDb2dVertex
 10
276.3825875895745
 20
-366.4198886018664
 30
0.0
  0
VERTEX
  5
1C2
330
1C0
100
AcDbEntity
  8
Camada 1
 62
     7
420
 16777215
370
    53
100
AcDbVertex
100
AcDb2dVertex
 10
276.3825875895745
 20
-183.0186960973891
 30
0.0
  0
SEQEND
  5
1C3
330
1C0
100
AcDbEntity
  8
Camada 1
 62
     7
420
 16777215
370
    53
  0
POLYLINE
  5
1C4
330
1F
100
AcDbEntity
  8
Camada 1
 62
     7
420
 16777215
370
    53
100
AcDb2dPolyline
 66
     1
 10
0.0
 20
0.0
 30
0.0
  0
VERTEX
  5
1C5
330
1C4
100
AcDbEntity
  8
Camada 1
 62
     7
420
 16777215
370
    53
100
AcDbVertex
100
AcDb2dVertex
 10
292.4001716006125
 20
-181.2167001128675
 30
0.0
  0
VERTEX
  5
1C6
330
1C4
100
AcDbEntity
  8
Camada 1
 62
     7
420
 16777215
370
    53
100
AcDbVertex
100
AcDb2dVertex
 10
292.4001716006125
 20
-182.2178233634839
 30
0.0
  0
SEQEND
  5
1C7
330
1C4
100
AcDbEntity
  8
Camada 1
 62
     7
420
 16777215
370
    53
  0
POLYLINE
  5
1C8
330
1F
100
AcDbEntity
  8
Camada 1
 62
     7
420
 16777215
370
    53
100
AcDb2dPolyline
 66
     1
 10
0.0
 20
0.0
 30
0.0
  0
VERTEX
  5
1C9
330
1C8
100
AcDbEntity
  8
Camada 1
 62
     7
420
 16777215
370
    53
100
AcDbVertex
100
AcDb2dVertex
 10
294.4023318798763
 20
-181.2167001128675
 30
0.0
  0
VERTEX
  5
1CA
330
1C8
100
AcDbEntity
  8
Camada 1
 62
     7
420
 16777215
370
    53
100
AcDbVertex
100
AcDb2dVertex
 10
294.4023318798763
 20
-182.2178233634839
 30
0.0
  0
SEQEND
  5
1CB
330
1C8
100
AcDbEntity
  8
Camada 1
 62
     7
420
 16777215
370
    53
  0
POLYLINE
  5
1CC
330
1F
100
AcDbEntity
  8
Camada 1
 62
     7
420
 16777215
370
    53
100
AcDb2dPolyline
 66
     1
 10
0.0
 20
0.0
 30
0.0
  0
VERTEX
  5
1CD
330
1CC
100
AcDbEntity
  8
Camada 1
 62
     7
420
 16777215
370
    53
100
AcDbVertex
100
AcDb2dVertex
 10
419.3826671266046
 20
-389.7141970136019
 30
0.0
  0
VERTEX
  5
1CE
330
1CC
100
AcDbEntity
  8
Camada 1
 62
     7
420
 16777215
370
    53
100
AcDbVertex
100
AcDb2dVertex
 10
416.0188464446745
 20
-387.6118036985197
 30
0.0
  0
SEQEND
  5
1CF
330
1CC
100
AcDbEntity
  8
Camada 1
 62
     7
420
 16777215
370
    53
  0
POLYLINE
  5
1D0
330
1F
100
AcDbEntity
  8
Camada 1
 62
     7
420
 16777215
370
    53
100
AcDb2dPolyline
 66
     1
 10
0.0
 20
0.0
 30
0.0
  0
VERTEX
  5
1D1
330
1D0
100
AcDbEntity
  8
Camada 1
 62
     7
420
 16777215
370
    53
100
AcDbVertex
100
AcDb2dVertex
 10
432.2947945776895
 20
-393.2646020305872
 30
0.0
  0
VERTEX
  5
1D2
330
1D0
100
AcDbEntity
  8
Camada 1
 62
     7
420
 16777215
370
    53
100
AcDbVertex
100
AcDb2dVertex
 10
419.9256068483529
 20
-389.9502943127953
 30
0.0
  0
SEQEND
  5
1D3
330
1D0
100
AcDbEntity
  8
Camada 1
 62
     7
420
 16777215
370
    53
  0
POLYLINE
  5
1D4
330
1F
100
AcDbEntity
  8
Camada 1
 62
     7
420
 16777215
370
    53
100
AcDb2dPolyline
 66
     1
 10
0.0
 20
0.0
 30
0.0
  0
VERTEX
  5
1D5
330
1D4
100
AcDbEntity
  8
Camada 1
 62
     7
420
 16777215
370
    53
100
AcDbVertex
100
AcDb2dVertex
 10
419.9256068483529
 20
-389.9502943127953
 30
0.0
  0
VERTEX
  5
1D6
330
1D4
100
AcDbEntity
  8
Camada 1
 62
     7
420
 16777215
370
    53
100
AcDbVertex
100
AcDb2dVertex
 10
419.3826671266046
 20
-389.7141970136019
 30
0.0
  0
SEQEND
  5
1D7
330
1D4
100
AcDbEntity
  8
Camada 1
 62
     7
420
 16777215
370
    53
  0
POLYLINE
  5
1D8
330
1F
100
AcDbEntity
  8
Camada 1
 62
     7
420
 16777215
370
    53
100
AcDb2dPolyline
 66
     1
 10
0.0
 20
0.0
 30
0.0
  0
VERTEX
  5
1D9
330
1D8
100
AcDbEntity
  8
Camada 1
 62
     7
420
 16777215
370
    53
100
AcDbVertex
100
AcDb2dVertex
 10
415.3498070972251
 20
-387.3889199156549
 30
0.0
  0
VERTEX
  5
1DA
330
1D8
100
AcDbEntity
  8
Camada 1
 62
     7
420
 16777215
370
    53
100
AcDbVertex
100
AcDb2dVertex
 10
415.3898572005681
 20
-387.392843015116
 30
0.0
  0
VERTEX
  5
1DB
330
1D8
100
AcDbEntity
  8
Camada 1
 62
     7
420
 16777215
370
    53
100
AcDbVertex
100
AcDb2dVertex
 10
415.4601281031006
 20
-387.4023920978861
 30
0.0
  0
VERTEX
  5
1DC
330
1D8
100
AcDbEntity
  8
Camada 1
 62
     7
420
 16777215
370
    53
100
AcDbVertex
100
AcDb2dVertex
 10
415.5344083270602
 20
-387.4161876124894
 30
0.0
  0
VERTEX
  5
1DD
330
1D8
100
AcDbEntity
  8
Camada 1
 62
     7
420
 16777215
370
    53
100
AcDbVertex
100
AcDb2dVertex
 10
415.6129565383486
 20
-387.4350702231142
 30
0.0
  0
VERTEX
  5
1DE
330
1D8
100
AcDbEntity
  8
Camada 1
 62
     7
420
 16777215
370
    53
100
AcDbVertex
100
AcDb2dVertex
 10
415.6933154109401
 20
-387.4590830407185
 30
0.0
  0
VERTEX
  5
1DF
330
1D8
100
AcDbEntity
  8
Camada 1
 62
     7
420
 16777215
370
    53
100
AcDbVertex
100
AcDb2dVertex
 10
415.7753556118709
 20
-387.4888296190974
 30
0.0
  0
VERTEX
  5
1E0
330
1D8
100
AcDbEntity
  8
Camada 1
 62
     7
420
 16777215
370
    53
100
AcDbVertex
100
AcDb2dVertex
 10
415.8585166983577
 20
-387.5246548460893
 30
0.0
  0
VERTEX
  5
1E1
330
1D8
100
AcDbEntity
  8
Camada 1
 62
     7
420
 16777215
370
    53
100
AcDbVertex
100
AcDb2dVertex
 10
415.9418071177962
 20
-387.5667742766173
 30
0.0
  0
VERTEX
  5
1E2
330
1D8
100
AcDbEntity
  8
Camada 1
 62
     7
420
 16777215
370
    53
100
AcDbVertex
100
AcDb2dVertex
 10
416.0188464446745
 20
-387.6117821430257
 30
0.0
  0
SEQEND
  5
1E3
330
1D8
100
AcDbEntity
  8
Camada 1
 62
     7
420
 16777215
370
    53
  0
POLYLINE
  5
1E4
330
1F
100
AcDbEntity
  8
Camada 1
 62
     7
420
 16777215
370
    53
100
AcDb2dPolyline
 66
     1
 10
0.0
 20
0.0
 30
0.0
  0
VERTEX
  5
1E5
330
1E4
100
AcDbEntity
  8
Camada 1
 62
     7
420
 16777215
370
    53
100
AcDbVertex
100
AcDb2dVertex
 10
850.626918632411
 20
-327.8822047699217
 30
0.0
  0
VERTEX
  5
1E6
330
1E4
100
AcDbEntity
  8
Camada 1
 62
     7
420
 16777215
370
    53
100
AcDbVertex
100
AcDb2dVertex
 10
838.2577740140513
 20
-331.1965340432077
 30
0.0
  0
SEQEND
  5
1E7
330
1E4
100
AcDbEntity
  8
Camada 1
 62
     7
420
 16777215
370
    53
  0
POLYLINE
  5
1E8
330
1F
100
AcDbEntity
  8
Camada 1
 62
     7
420
 16777215
370
    53
100
AcDb2dPolyline
 66
     1
 10
0.0
 20
0.0
 30
0.0
  0
VERTEX
  5
1E9
330
1E8
100
AcDbEntity
  8
Camada 1
 62
     7
420
 16777215
370
    53
100
AcDbVertex
100
AcDb2dVertex
 10
522.9117962685564
 20
-393.2646020305872
 30
0.0
  0
VERTEX
  5
1EA
330
1E8
100
AcDbEntity
  8
Camada 1
 62
     7
420
 16777215
370
    53
100
AcDbVertex
100
AcDb2dVertex
 10
535.2810271088903
 20
-389.9502943127953
 30
0.0
  0
SEQEND
  5
1EB
330
1E8
100
AcDbEntity
  8
Camada 1
 62
     7
420
 16777215
370
    53
  0
POLYLINE
  5
1EC
330
1F
100
AcDbEntity
  8
Camada 1
 62
     7
420
 16777215
370
    53
100
AcDb2dPolyline
 66
     1
 10
0.0
 20
0.0
 30
0.0
  0
VERTEX
  5
1ED
330
1EC
100
AcDbEntity
  8
Camada 1
 62
     7
420
 16777215
370
    53
100
AcDbVertex
100
AcDb2dVertex
 10
539.7924190511817
 20
-387.3957745619748
 30
0.0
  0
VERTEX
  5
1EE
330
1EC
100
AcDbEntity
  8
Camada 1
 62
     7
420
 16777215
370
    53
100
AcDbVertex
100
AcDb2dVertex
 10
539.8568268600075
 20
-387.3889199156549
 30
0.0
  0
SEQEND
  5
1EF
330
1EC
100
AcDbEntity
  8
Camada 1
 62
     7
420
 16777215
370
    53
  0
POLYLINE
  5
1F0
330
1F
100
AcDbEntity
  8
Camada 1
 62
     7
420
 16777215
370
    53
100
AcDb2dPolyline
 66
     1
 10
0.0
 20
0.0
 30
0.0
  0
VERTEX
  5
1F1
330
1F0
100
AcDbEntity
  8
Camada 1
 62
     7
420
 16777215
370
    53
100
AcDbVertex
100
AcDb2dVertex
 10
539.8568268600075
 20
-387.3889199156549
 30
0.0
  0
VERTEX
  5
1F2
330
1F0
100
AcDbEntity
  8
Camada 1
 62
     7
420
 16777215
370
    53
100
AcDbVertex
100
AcDb2dVertex
 10
558.5955330162258
 20
-385.9292251373078
 30
0.0
  0
VERTEX
  5
1F3
330
1F0
100
AcDbEntity
  8
Camada 1
 62
     7
420
 16777215
370
    53
100
AcDbVertex
100
AcDb2dVertex
 10
578.4651264823318
 20
-384.6591971293204
 30
0.0
  0
VERTEX
  5
1F4
330
1F0
100
AcDbEntity
  8
Camada 1
 62
     7
420
 16777215
370
    53
100
AcDbVertex
100
AcDb2dVertex
 10
598.3201484361415
 20
-383.6756416043378
 30
0.0
  0
VERTEX
  5
1F5
330
1F0
100
AcDbEntity
  8
Camada 1
 62
     7
420
 16777215
370
    53
100
AcDbVertex
100
AcDb2dVertex
 10
618.1543908960657
 20
-382.9781705635064
 30
0.0
  0
VERTEX
  5
1F6
330
1F0
100
AcDbEntity
  8
Camada 1
 62
     7
420
 16777215
370
    53
100
AcDbVertex
100
AcDb2dVertex
 10
637.9617321025129
 20
-382.5659217871738
 30
0.0
  0
VERTEX
  5
1F7
330
1F0
100
AcDbEntity
  8
Camada 1
 62
     7
420
 16777215
370
    53
100
AcDbVertex
100
AcDb2dVertex
 10
651.7945808206539
 20
-382.4715734005555
 30
0.0
  0
SEQEND
  5
1F8
330
1F0
100
AcDbEntity
  8
Camada 1
 62
     7
420
 16777215
370
    53
  0
POLYLINE
  5
1F9
330
1F
100
AcDbEntity
  8
Camada 1
 62
     7
420
 16777215
370
    53
100
AcDb2dPolyline
 66
     1
 10
0.0
 20
0.0
 30
0.0
  0
VERTEX
  5
1FA
330
1F9
100
AcDbEntity
  8
Camada 1
 62
     7
420
 16777215
370
    53
100
AcDbVertex
100
AcDb2dVertex
 10
522.9117962685564
 20
-393.2646020305872
 30
0.0
  0
VERTEX
  5
1FB
330
1F9
100
AcDbEntity
  8
Camada 1
 62
     7
420
 16777215
370
    53
100
AcDbVertex
100
AcDb2dVertex
 10
432.2947945776895
 20
-393.2646020305872
 30
0.0
  0
SEQEND
  5
1FC
330
1F9
100
AcDbEntity
  8
Camada 1
 62
     7
420
 16777215
370
    53
  0
POLYLINE
  5
1FD
330
1F
100
AcDbEntity
  8
Camada 1
 62
     7
420
 16777215
370
    53
100
AcDb2dPolyline
 66
     1
 10
0.0
 20
0.0
 30
0.0
  0
VERTEX
  5
1FE
330
1FD
100
AcDbEntity
  8
Camada 1
 62
     7
420
 16777215
370
    53
100
AcDbVertex
100
AcDb2dVertex
 10
292.4001716006125
 20
-382.4374510573972
 30
0.0
  0
VERTEX
  5
1FF
330
1FD
100
AcDbEntity
  8
Camada 1
 62
     7
420
 16777215
370
    53
100
AcDbVertex
100
AcDb2dVertex
 10
662.8064192456438
 20
-382.4374510573972
 30
0.0
  0
SEQEND
  5
200
330
1FD
100
AcDbEntity
  8
Camada 1
 62
     7
420
 16777215
370
    53
  0
POLYLINE
  5
201
330
1F
100
AcDbEntity
  8
Camada 1
 62
     7
420
 16777215
370
    53
100
AcDb2dPolyline
 66
     1
 10
0.0
 20
0.0
 30
0.0
  0
VERTEX
  5
202
330
201
100
AcDbEntity
  8
Camada 1
 62
     7
420
 16777215
370
    53
100
AcDbVertex
100
AcDb2dVertex
 10
303.4120100256
 20
-382.4715734005555
 30
0.0
  0
VERTEX
  5
203
330
201
100
AcDbEntity
  8
Camada 1
 62
     7
420
 16777215
370
    53
100
AcDbVertex
100
AcDb2dVertex
 10
317.244858743731
 20
-382.5659217871738
 30
0.0
  0
VERTEX
  5
204
330
201
100
AcDbEntity
  8
Camada 1
 62
     7
420
 16777215
370
    53
100
AcDbVertex
100
AcDb2dVertex
 10
337.0521999501804
 20
-382.9781705635064
 30
0.0
  0
VERTEX
  5
205
330
201
100
AcDbEntity
  8
Camada 1
 62
     7
420
 16777215
370
    53
100
AcDbVertex
100
AcDb2dVertex
 10
356.8864855210885
 20
-383.6756416043378
 30
0.0
  0
VERTEX
  5
206
330
201
100
AcDbEntity
  8
Camada 1
 62
     7
420
 16777215
370
    53
100
AcDbVertex
100
AcDb2dVertex
 10
376.7415074749014
 20
-384.6591971293204
 30
0.0
  0
VERTEX
  5
207
330
201
100
AcDbEntity
  8
Camada 1
 62
     7
420
 16777215
370
    53
100
AcDbVertex
100
AcDb2dVertex
 10
396.6111009410056
 20
-385.9292251373078
 30
0.0
  0
VERTEX
  5
208
330
201
100
AcDbEntity
  8
Camada 1
 62
     7
420
 16777215
370
    53
100
AcDbVertex
100
AcDb2dVertex
 10
415.3498070972251
 20
-387.3889199156549
 30
0.0
  0
SEQEND
  5
209
330
201
100
AcDbEntity
  8
Camada 1
 62
     7
420
 16777215
370
    53
  0
POLYLINE
  5
20A
330
1F
100
AcDbEntity
  8
Camada 1
 62
     7
420
 16777215
370
    53
100
AcDb2dPolyline
 66
     1
 10
0.0
 20
0.0
 30
0.0
  0
VERTEX
  5
20B
330
20A
100
AcDbEntity
  8
Camada 1
 62
     7
420
 16777215
370
    53
100
AcDbVertex
100
AcDb2dVertex
 10
747.6407292122079
 20
-331.1965340432077
 30
0.0
  0
VERTEX
  5
20C
330
20A
100
AcDbEntity
  8
Camada 1
 62
     7
420
 16777215
370
    53
100
AcDbVertex
100
AcDb2dVertex
 10
838.2577740140513
 20
-331.1965340432077
 30
0.0
  0
SEQEND
  5
20D
330
20A
100
AcDbEntity
  8
Camada 1
 62
     7
420
 16777215
370
    53
  0
POLYLINE
  5
20E
330
1F
100
AcDbEntity
  8
Camada 1
 62
     7
420
 16777215
370
    53
100
AcDb2dPolyline
 66
     1
 10
0.0
 20
0.0
 30
0.0
  0
VERTEX
  5
20F
330
20E
100
AcDbEntity
  8
Camada 1
 62
     7
420
 16777215
370
    53
100
AcDbVertex
100
AcDb2dVertex
 10
862.025031466391
 20
-322.3715433492827
 30
0.0
  0
VERTEX
  5
210
330
20E
100
AcDbEntity
  8
Camada 1
 62
     7
420
 16777215
370
    53
100
AcDbVertex
100
AcDb2dVertex
 10
723.8734717598663
 20
-322.3715433492827
 30
0.0
  0
SEQEND
  5
211
330
20E
100
AcDbEntity
  8
Camada 1
 62
     7
420
 16777215
370
    53
  0
POLYLINE
  5
212
330
1F
100
AcDbEntity
  8
Camada 1
 62
     7
420
 16777215
370
    53
100
AcDb2dPolyline
 66
     1
 10
0.0
 20
0.0
 30
0.0
  0
VERTEX
  5
213
330
212
100
AcDbEntity
  8
Camada 1
 62
     7
420
 16777215
370
    53
100
AcDbVertex
100
AcDb2dVertex
 10
679.825169618272
 20
-297.3441087485915
 30
0.0
  0
VERTEX
  5
214
330
212
100
AcDbEntity
  8
Camada 1
 62
     7
420
 16777215
370
    53
100
AcDbVertex
100
AcDb2dVertex
 10
678.8240463676581
 20
-297.3441087485915
 30
0.0
  0
SEQEND
  5
215
330
212
100
AcDbEntity
  8
Camada 1
 62
     7
420
 16777215
370
    53
  0
POLYLINE
  5
216
330
1F
100
AcDbEntity
  8
Camada 1
 62
     7
420
 16777215
370
    53
100
AcDb2dPolyline
 66
     1
 10
0.0
 20
0.0
 30
0.0
  0
VERTEX
  5
217
330
216
100
AcDbEntity
  8
Camada 1
 62
     7
420
 16777215
370
    53
100
AcDbVertex
100
AcDb2dVertex
 10
702.3497960924134
 20
-297.3441087485915
 30
0.0
  0
VERTEX
  5
218
330
216
100
AcDbEntity
  8
Camada 1
 62
     7
420
 16777215
370
    53
100
AcDbVertex
100
AcDb2dVertex
 10
703.3509193430292
 20
-297.3441087485915
 30
0.0
  0
SEQEND
  5
219
330
216
100
AcDbEntity
  8
Camada 1
 62
     7
420
 16777215
370
    53
  0
POLYLINE
  5
21A
330
1F
100
AcDbEntity
  8
Camada 1
 62
     7
420
 16777215
370
    40
100
AcDb2dPolyline
 66
     1
 10
0.0
 20
0.0
 30
0.0
  0
VERTEX
  5
21B
330
21A
100
AcDbEntity
  8
Camada 1
 62
     7
420
 16777215
370
    40
100
AcDbVertex
100
AcDb2dVertex
 10
680.4257918354601
 20
-283.3287281278185
 30
0.0
  0
VERTEX
  5
21C
330
21A
100
AcDbEntity
  8
Camada 1
 62
     7
420
 16777215
370
    40
100
AcDbVertex
100
AcDb2dVertex
 10
701.7491738752176
 20
-283.3287281278185
 30
0.0
  0
SEQEND
  5
21D
330
21A
100
AcDbEntity
  8
Camada 1
 62
     7
420
 16777215
370
    40
  0
POLYLINE
  5
21E
330
1F
100
AcDbEntity
  8
Camada 1
 62
     7
420
 16777215
370
    53
100
AcDb2dPolyline
 66
     1
 10
0.0
 20
0.0
 30
0.0
  0
VERTEX
  5
21F
330
21E
100
AcDbEntity
  8
Camada 1
 62
     7
420
 16777215
370
    53
100
AcDbVertex
100
AcDb2dVertex
 10
680.4257918354601
 20
-282.3276479881818
 30
0.0
  0
VERTEX
  5
220
330
21E
100
AcDbEntity
  8
Camada 1
 62
     7
420
 16777215
370
    53
100
AcDbVertex
100
AcDb2dVertex
 10
701.7491738752176
 20
-282.3276479881818
 30
0.0
  0
SEQEND
  5
221
330
21E
100
AcDbEntity
  8
Camada 1
 62
     7
420
 16777215
370
    53
  0
POLYLINE
  5
222
330
1F
100
AcDbEntity
  8
Camada 1
 62
     7
420
 16777215
370
    53
100
AcDb2dPolyline
 66
     1
 10
0.0
 20
0.0
 30
0.0
  0
VERTEX
  5
223
330
222
100
AcDbEntity
  8
Camada 1
 62
     7
420
 16777215
370
    53
100
AcDbVertex
100
AcDb2dVertex
 10
735.2714983718855
 20
-327.8822047699217
 30
0.0
  0
VERTEX
  5
224
330
222
100
AcDbEntity
  8
Camada 1
 62
     7
420
 16777215
370
    53
100
AcDbVertex
100
AcDb2dVertex
 10
747.6407292122079
 20
-331.1965340432077
 30
0.0
  0
SEQEND
  5
225
330
222
100
AcDbEntity
  8
Camada 1
 62
     7
420
 16777215
370
    53
  0
POLYLINE
  5
226
330
1F
100
AcDbEntity
  8
Camada 1
 62
     7
420
 16777215
370
    53
100
AcDb2dPolyline
 66
     1
 10
0.0
 20
0.0
 30
0.0
  0
VERTEX
  5
227
330
226
100
AcDbEntity
  8
Camada 1
 62
     7
420
 16777215
370
    53
100
AcDbVertex
100
AcDb2dVertex
 10
730.9467769866027
 20
-325.2824831532677
 30
0.0
  0
VERTEX
  5
228
330
226
100
AcDbEntity
  8
Camada 1
 62
     7
420
 16777215
370
    53
100
AcDbVertex
100
AcDb2dVertex
 10
734.7285586501463
 20
-327.6460859152323
 30
0.0
  0
SEQEND
  5
229
330
226
100
AcDbEntity
  8
Camada 1
 62
     7
420
 16777215
370
    53
  0
POLYLINE
  5
22A
330
1F
100
AcDbEntity
  8
Camada 1
 62
     7
420
 16777215
370
    53
100
AcDb2dPolyline
 66
     1
 10
0.0
 20
0.0
 30
0.0
  0
VERTEX
  5
22B
330
22A
100
AcDbEntity
  8
Camada 1
 62
     7
420
 16777215
370
    53
100
AcDbVertex
100
AcDb2dVertex
 10
535.823966830627
 20
-389.7141970136019
 30
0.0
  0
VERTEX
  5
22C
330
22A
100
AcDbEntity
  8
Camada 1
 62
     7
420
 16777215
370
    53
100
AcDbVertex
100
AcDb2dVertex
 10
539.1877444015813
 20
-387.6118036985197
 30
0.0
  0
SEQEND
  5
22D
330
22A
100
AcDbEntity
  8
Camada 1
 62
     7
420
 16777215
370
    53
  0
POLYLINE
  5
22E
330
1F
100
AcDbEntity
  8
Camada 1
 62
     7
420
 16777215
370
    53
100
AcDb2dPolyline
 66
     1
 10
0.0
 20
0.0
 30
0.0
  0
VERTEX
  5
22F
330
22E
100
AcDbEntity
  8
Camada 1
 62
     7
420
 16777215
370
    53
100
AcDbVertex
100
AcDb2dVertex
 10
539.1877444015813
 20
-387.6118036985197
 30
0.0
  0
VERTEX
  5
230
330
22E
100
AcDbEntity
  8
Camada 1
 62
     7
420
 16777215
370
    53
100
AcDbVertex
100
AcDb2dVertex
 10
539.2211123025321
 20
-387.5915199809438
 30
0.0
  0
VERTEX
  5
231
330
22E
100
AcDbEntity
  8
Camada 1
 62
     7
420
 16777215
370
    53
100
AcDbVertex
100
AcDb2dVertex
 10
539.3215608932662
 20
-387.5373725861154
 30
0.0
  0
VERTEX
  5
232
330
22E
100
AcDbEntity
  8
Camada 1
 62
     7
420
 16777215
370
    53
100
AcDbVertex
100
AcDb2dVertex
 10
539.4215783741564
 20
-387.4927096075833
 30
0.0
  0
VERTEX
  5
233
330
22E
100
AcDbEntity
  8
Camada 1
 62
     7
420
 16777215
370
    53
100
AcDbVertex
100
AcDb2dVertex
 10
539.5207336353976
 20
-387.4566688256658
 30
0.0
  0
VERTEX
  5
234
330
22E
100
AcDbEntity
  8
Camada 1
 62
     7
420
 16777215
370
    53
100
AcDbVertex
100
AcDb2dVertex
 10
539.6167849058467
 20
-387.4290346854674
 30
0.0
  0
VERTEX
  5
235
330
22E
100
AcDbEntity
  8
Camada 1
 62
     7
420
 16777215
370
    53
100
AcDbVertex
100
AcDb2dVertex
 10
539.7102495173098
 20
-387.4086216349535
 30
0.0
  0
VERTEX
  5
236
330
22E
100
AcDbEntity
  8
Camada 1
 62
     7
420
 16777215
370
    53
100
AcDbVertex
100
AcDb2dVertex
 10
539.7924190511817
 20
-387.3957745619748
 30
0.0
  0
SEQEND
  5
237
330
22E
100
AcDbEntity
  8
Camada 1
 62
     7
420
 16777215
370
    53
  0
POLYLINE
  5
238
330
1F
100
AcDbEntity
  8
Camada 1
 62
     7
420
 16777215
370
    53
100
AcDb2dPolyline
 66
     1
 10
0.0
 20
0.0
 30
0.0
  0
VERTEX
  5
239
330
238
100
AcDbEntity
  8
Camada 1
 62
     7
420
 16777215
370
    53
100
AcDbVertex
100
AcDb2dVertex
 10
660.8042589663769
 20
-181.2167001128675
 30
0.0
  0
VERTEX
  5
23A
330
238
100
AcDbEntity
  8
Camada 1
 62
     7
420
 16777215
370
    53
100
AcDbVertex
100
AcDb2dVertex
 10
660.8042589663769
 20
-182.2178233634839
 30
0.0
  0
SEQEND
  5
23B
330
238
100
AcDbEntity
  8
Camada 1
 62
     7
420
 16777215
370
    53
  0
POLYLINE
  5
23C
330
1F
100
AcDbEntity
  8
Camada 1
 62
     7
420
 16777215
370
    53
100
AcDb2dPolyline
 66
     1
 10
0.0
 20
0.0
 30
0.0
  0
VERTEX
  5
23D
330
23C
100
AcDbEntity
  8
Camada 1
 62
     7
420
 16777215
370
    53
100
AcDbVertex
100
AcDb2dVertex
 10
662.8064192456438
 20
-181.2167001128675
 30
0.0
  0
VERTEX
  5
23E
330
23C
100
AcDbEntity
  8
Camada 1
 62
     7
420
 16777215
370
    53
100
AcDbVertex
100
AcDb2dVertex
 10
662.8064192456438
 20
-182.2178233634839
 30
0.0
  0
SEQEND
  5
23F
330
23C
100
AcDbEntity
  8
Camada 1
 62
     7
420
 16777215
370
    53
  0
POLYLINE
  5
240
330
1F
100
AcDbEntity
  8
Camada 1
 62
     7
420
 16777215
370
    53
100
AcDb2dPolyline
 66
     1
 10
0.0
 20
0.0
 30
0.0
  0
VERTEX
  5
241
330
240
100
AcDbEntity
  8
Camada 1
 62
     7
420
 16777215
370
    53
100
AcDbVertex
100
AcDb2dVertex
 10
535.2810271088903
 20
-389.9502943127953
 30
0.0
  0
VERTEX
  5
242
330
240
100
AcDbEntity
  8
Camada 1
 62
     7
420
 16777215
370
    53
100
AcDbVertex
100
AcDb2dVertex
 10
535.823966830627
 20
-389.7141970136019
 30
0.0
  0
SEQEND
  5
243
330
240
100
AcDbEntity
  8
Camada 1
 62
     7
420
 16777215
370
    53
  0
POLYLINE
  5
244
330
1F
100
AcDbEntity
  8
Camada 1
 62
     7
420
 16777215
370
    53
100
AcDb2dPolyline
 66
     1
 10
0.0
 20
0.0
 30
0.0
  0
VERTEX
  5
245
330
244
100
AcDbEntity
  8
Camada 1
 62
     7
420
 16777215
370
    53
100
AcDbVertex
100
AcDb2dVertex
 10
678.8240463676581
 20
-366.4198886018664
 30
0.0
  0
VERTEX
  5
246
330
244
100
AcDbEntity
  8
Camada 1
 62
     7
420
 16777215
370
    53
100
AcDbVertex
100
AcDb2dVertex
 10
678.8240463676581
 20
-183.0186960973891
 30
0.0
  0
SEQEND
  5
247
330
244
100
AcDbEntity
  8
Camada 1
 62
     7
420
 16777215
370
    53
  0
POLYLINE
  5
248
330
1F
100
AcDbEntity
  8
Camada 1
 62
     7
420
 16777215
370
    40
100
AcDb2dPolyline
 66
     1
 10
0.0
 20
0.0
 30
0.0
  0
VERTEX
  5
249
330
248
100
AcDbEntity
  8
Camada 1
 62
     7
420
 16777215
370
    40
100
AcDbVertex
100
AcDb2dVertex
 10
679.825169618272
 20
-297.3441087485915
 30
0.0
  0
VERTEX
  5
24A
330
248
100
AcDbEntity
  8
Camada 1
 62
     7
420
 16777215
370
    40
100
AcDbVertex
100
AcDb2dVertex
 10
679.825169618272
 20
-283.9293934559934
 30
0.0
  0
SEQEND
  5
24B
330
248
100
AcDbEntity
  8
Camada 1
 62
     7
420
 16777215
370
    40
  0
POLYLINE
  5
24C
330
1F
100
AcDbEntity
  8
Camada 1
 62
     7
420
 16777215
370
    53
100
AcDb2dPolyline
 66
     1
 10
0.0
 20
0.0
 30
0.0
  0
VERTEX
  5
24D
330
24C
100
AcDbEntity
  8
Camada 1
 62
     7
420
 16777215
370
    53
100
AcDbVertex
100
AcDb2dVertex
 10
683.8294901768053
 20
-181.2167001128675
 30
0.0
  0
VERTEX
  5
24E
330
24C
100
AcDbEntity
  8
Camada 1
 62
     7
420
 16777215
370
    53
100
AcDbVertex
100
AcDb2dVertex
 10
683.8294901768053
 20
-182.2178233634839
 30
0.0
  0
SEQEND
  5
24F
330
24C
100
AcDbEntity
  8
Camada 1
 62
     7
420
 16777215
370
    53
  0
POLYLINE
  5
250
330
1F
100
AcDbEntity
  8
Camada 1
 62
     7
420
 16777215
370
    53
100
AcDb2dPolyline
 66
     1
 10
0.0
 20
0.0
 30
0.0
  0
VERTEX
  5
251
330
250
100
AcDbEntity
  8
Camada 1
 62
     7
420
 16777215
370
    53
100
AcDbVertex
100
AcDb2dVertex
 10
685.831736678044
 20
-181.2167001128675
 30
0.0
  0
VERTEX
  5
252
330
250
100
AcDbEntity
  8
Camada 1
 62
     7
420
 16777215
370
    53
100
AcDbVertex
100
AcDb2dVertex
 10
685.831736678044
 20
-182.2178233634839
 30
0.0
  0
SEQEND
  5
253
330
250
100
AcDbEntity
  8
Camada 1
 62
     7
420
 16777215
370
    53
  0
POLYLINE
  5
254
330
1F
100
AcDbEntity
  8
Camada 1
 62
     7
420
 16777215
370
    53
100
AcDb2dPolyline
 66
     1
 10
0.0
 20
0.0
 30
0.0
  0
VERTEX
  5
255
330
254
100
AcDbEntity
  8
Camada 1
 62
     7
420
 16777215
370
    53
100
AcDbVertex
100
AcDb2dVertex
 10
269.3748972791874
 20
-182.2178233634839
 30
0.0
  0
VERTEX
  5
256
330
254
100
AcDbEntity
  8
Camada 1
 62
     7
420
 16777215
370
    53
100
AcDbVertex
100
AcDb2dVertex
 10
685.831736678044
 20
-182.2178233634839
 30
0.0
  0
SEQEND
  5
257
330
254
100
AcDbEntity
  8
Camada 1
 62
     7
420
 16777215
370
    53
  0
POLYLINE
  5
258
330
1F
100
AcDbEntity
  8
Camada 1
 62
     7
420
 16777215
370
    53
100
AcDb2dPolyline
 66
     1
 10
0.0
 20
0.0
 30
0.0
  0
VERTEX
  5
259
330
258
100
AcDbEntity
  8
Camada 1
 62
     7
420
 16777215
370
    53
100
AcDbVertex
100
AcDb2dVertex
 10
699.8471172988176
 20
-182.2178233634839
 30
0.0
  0
VERTEX
  5
25A
330
258
100
AcDbEntity
  8
Camada 1
 62
     7
420
 16777215
370
    53
100
AcDbVertex
100
AcDb2dVertex
 10
886.0513859274416
 20
-182.2178233634839
 30
0.0
  0
SEQEND
  5
25B
330
258
100
AcDbEntity
  8
Camada 1
 62
     7
420
 16777215
370
    53
  0
POLYLINE
  5
25C
330
1F
100
AcDbEntity
  8
Camada 1
 62
     7
420
 16777215
370
    53
100
AcDb2dPolyline
 66
     1
 10
0.0
 20
0.0
 30
0.0
  0
VERTEX
  5
25D
330
25C
100
AcDbEntity
  8
Camada 1
 62
     7
420
 16777215
370
    53
100
AcDbVertex
100
AcDb2dVertex
 10
268.8115660624267
 20
-181.2167001128675
 30
0.0
  0
VERTEX
  5
25E
330
25C
100
AcDbEntity
  8
Camada 1
 62
     7
420
 16777215
370
    53
100
AcDbVertex
100
AcDb2dVertex
 10
886.6146740332358
 20
-181.2167001128675
 30
0.0
  0
SEQEND
  5
25F
330
25C
100
AcDbEntity
  8
Camada 1
 62
     7
420
 16777215
370
    53
  0
POLYLINE
  5
260
330
1F
100
AcDbEntity
  8
Camada 1
 62
     7
420
 16777215
370
    53
100
AcDb2dPolyline
 66
     1
 10
0.0
 20
0.0
 30
0.0
  0
VERTEX
  5
261
330
260
100
AcDbEntity
  8
Camada 1
 62
     7
420
 16777215
370
    53
100
AcDbVertex
100
AcDb2dVertex
 10
247.3507462083912
 20
-178.213416582986
 30
0.0
  0
VERTEX
  5
262
330
260
100
AcDbEntity
  8
Camada 1
 62
     7
420
 16777215
370
    53
100
AcDbVertex
100
AcDb2dVertex
 10
908.0754938872614
 20
-178.213416582986
 30
0.0
  0
SEQEND
  5
263
330
260
100
AcDbEntity
  8
Camada 1
 62
     7
420
 16777215
370
    53
  0
POLYLINE
  5
264
330
1F
100
AcDbEntity
  8
Camada 1
 62
     7
420
 16777215
370
    53
100
AcDb2dPolyline
 66
     1
 10
0.0
 20
0.0
 30
0.0
  0
VERTEX
  5
265
330
264
100
AcDbEntity
  8
Camada 1
 62
     7
420
 16777215
370
    53
100
AcDbVertex
100
AcDb2dVertex
 10
247.3507462083912
 20
-177.212336443348
 30
0.0
  0
VERTEX
  5
266
330
264
100
AcDbEntity
  8
Camada 1
 62
     7
420
 16777215
370
    53
100
AcDbVertex
100
AcDb2dVertex
 10
908.0754938872614
 20
-177.212336443348
 30
0.0
  0
SEQEND
  5
267
330
264
100
AcDbEntity
  8
Camada 1
 62
     7
420
 16777215
370
    53
  0
POLYLINE
  5
268
330
1F
100
AcDbEntity
  8
Camada 1
 62
     7
420
 16777215
370
    53
100
AcDb2dPolyline
 66
     1
 10
0.0
 20
0.0
 30
0.0
  0
VERTEX
  5
269
330
268
100
AcDbEntity
  8
Camada 1
 62
     7
420
 16777215
370
    53
100
AcDbVertex
100
AcDb2dVertex
 10
699.8471172988176
 20
-182.2178233634839
 30
0.0
  0
VERTEX
  5
26A
330
268
100
AcDbEntity
  8
Camada 1
 62
     7
420
 16777215
370
    53
100
AcDbVertex
100
AcDb2dVertex
 10
699.8471172988176
 20
-181.2167001128675
 30
0.0
  0
SEQEND
  5
26B
330
268
100
AcDbEntity
  8
Camada 1
 62
     7
420
 16777215
370
    53
  0
POLYLINE
  5
26C
330
1F
100
AcDbEntity
  8
Camada 1
 62
     7
420
 16777215
370
    53
100
AcDb2dPolyline
 66
     1
 10
0.0
 20
0.0
 30
0.0
  0
VERTEX
  5
26D
330
26C
100
AcDbEntity
  8
Camada 1
 62
     7
420
 16777215
370
    53
100
AcDbVertex
100
AcDb2dVertex
 10
701.8492775780833
 20
-181.2167001128675
 30
0.0
  0
VERTEX
  5
26E
330
26C
100
AcDbEntity
  8
Camada 1
 62
     7
420
 16777215
370
    53
100
AcDbVertex
100
AcDb2dVertex
 10
701.8492775780833
 20
-182.2178233634839
 30
0.0
  0
SEQEND
  5
26F
330
26C
100
AcDbEntity
  8
Camada 1
 62
     7
420
 16777215
370
    53
  0
POLYLINE
  5
270
330
1F
100
AcDbEntity
  8
Camada 1
 62
     7
420
 16777215
370
    40
100
AcDb2dPolyline
 66
     1
 10
0.0
 20
0.0
 30
0.0
  0
VERTEX
  5
271
330
270
100
AcDbEntity
  8
Camada 1
 62
     7
420
 16777215
370
    40
100
AcDbVertex
100
AcDb2dVertex
 10
702.3497960924134
 20
-297.3441087485915
 30
0.0
  0
VERTEX
  5
272
330
270
100
AcDbEntity
  8
Camada 1
 62
     7
420
 16777215
370
    40
100
AcDbVertex
100
AcDb2dVertex
 10
702.3497960924134
 20
-283.9293934559934
 30
0.0
  0
SEQEND
  5
273
330
270
100
AcDbEntity
  8
Camada 1
 62
     7
420
 16777215
370
    40
  0
POLYLINE
  5
274
330
1F
100
AcDbEntity
  8
Camada 1
 62
     7
420
 16777215
370
    53
100
AcDb2dPolyline
 66
     1
 10
0.0
 20
0.0
 30
0.0
  0
VERTEX
  5
275
330
274
100
AcDbEntity
  8
Camada 1
 62
     7
420
 16777215
370
    53
100
AcDbVertex
100
AcDb2dVertex
 10
703.3509193430292
 20
-283.9293934559934
 30
0.0
  0
VERTEX
  5
276
330
274
100
AcDbEntity
  8
Camada 1
 62
     7
420
 16777215
370
    53
100
AcDbVertex
100
AcDb2dVertex
 10
703.3509193430292
 20
-297.3441087485915
 30
0.0
  0
SEQEND
  5
277
330
274
100
AcDbEntity
  8
Camada 1
 62
     7
420
 16777215
370
    53
  0
POLYLINE
  5
278
330
1F
100
AcDbEntity
  8
Camada 1
 62
     7
420
 16777215
370
    53
100
AcDb2dPolyline
 66
     1
 10
0.0
 20
0.0
 30
0.0
  0
VERTEX
  5
279
330
278
100
AcDbEntity
  8
Camada 1
 62
     7
420
 16777215
370
    53
100
AcDbVertex
100
AcDb2dVertex
 10
706.8548076092054
 20
-183.0186960973891
 30
0.0
  0
VERTEX
  5
27A
330
278
100
AcDbEntity
  8
Camada 1
 62
     7
420
 16777215
370
    53
100
AcDbVertex
100
AcDb2dVertex
 10
706.8548076092054
 20
-305.3528791986179
 30
0.0
  0
SEQEND
  5
27B
330
278
100
AcDbEntity
  8
Camada 1
 62
     7
420
 16777215
370
    53
  0
POLYLINE
  5
27C
330
1F
100
AcDbEntity
  8
Camada 1
 62
     7
420
 16777215
370
    53
100
AcDb2dPolyline
 66
     1
 10
0.0
 20
0.0
 30
0.0
  0
VERTEX
  5
27D
330
27C
100
AcDbEntity
  8
Camada 1
 62
     7
420
 16777215
370
    53
100
AcDbVertex
100
AcDb2dVertex
 10
722.872348509253
 20
-181.2167001128675
 30
0.0
  0
VERTEX
  5
27E
330
27C
100
AcDbEntity
  8
Camada 1
 62
     7
420
 16777215
370
    53
100
AcDbVertex
100
AcDb2dVertex
 10
722.872348509253
 20
-182.2178233634839
 30
0.0
  0
SEQEND
  5
27F
330
27C
100
AcDbEntity
  8
Camada 1
 62
     7
420
 16777215
370
    53
  0
POLYLINE
  5
280
330
1F
100
AcDbEntity
  8
Camada 1
 62
     7
420
 16777215
370
    53
100
AcDb2dPolyline
 66
     1
 10
0.0
 20
0.0
 30
0.0
  0
VERTEX
  5
281
330
280
100
AcDbEntity
  8
Camada 1
 62
     7
420
 16777215
370
    53
100
AcDbVertex
100
AcDb2dVertex
 10
724.8745087885175
 20
-182.2178233634839
 30
0.0
  0
VERTEX
  5
282
330
280
100
AcDbEntity
  8
Camada 1
 62
     7
420
 16777215
370
    53
100
AcDbVertex
100
AcDb2dVertex
 10
724.8745087885175
 20
-181.2167001128675
 30
0.0
  0
SEQEND
  5
283
330
280
100
AcDbEntity
  8
Camada 1
 62
     7
420
 16777215
370
    53
  0
POLYLINE
  5
284
330
1F
100
AcDbEntity
  8
Camada 1
 62
     7
420
 16777215
370
    53
100
AcDb2dPolyline
 66
     1
 10
0.0
 20
0.0
 30
0.0
  0
VERTEX
  5
285
330
284
100
AcDbEntity
  8
Camada 1
 62
     7
420
 16777215
370
    53
100
AcDbVertex
100
AcDb2dVertex
 10
854.9516400176932
 20
-325.2824831532677
 30
0.0
  0
VERTEX
  5
286
330
284
100
AcDbEntity
  8
Camada 1
 62
     7
420
 16777215
370
    53
100
AcDbVertex
100
AcDb2dVertex
 10
851.1698583541599
 20
-327.6460859152323
 30
0.0
  0
SEQEND
  5
287
330
284
100
AcDbEntity
  8
Camada 1
 62
     7
420
 16777215
370
    53
  0
POLYLINE
  5
288
330
1F
100
AcDbEntity
  8
Camada 1
 62
     7
420
 16777215
370
    53
100
AcDb2dPolyline
 66
     1
 10
0.0
 20
0.0
 30
0.0
  0
VERTEX
  5
289
330
288
100
AcDbEntity
  8
Camada 1
 62
     7
420
 16777215
370
    53
100
AcDbVertex
100
AcDb2dVertex
 10
861.0239082157772
 20
-182.2178233634839
 30
0.0
  0
VERTEX
  5
28A
330
288
100
AcDbEntity
  8
Camada 1
 62
     7
420
 16777215
370
    53
100
AcDbVertex
100
AcDb2dVertex
 10
861.0239082157772
 20
-181.2167001128675
 30
0.0
  0
SEQEND
  5
28B
330
288
100
AcDbEntity
  8
Camada 1
 62
     7
420
 16777215
370
    53
  0
POLYLINE
  5
28C
330
1F
100
AcDbEntity
  8
Camada 1
 62
     7
420
 16777215
370
    53
100
AcDb2dPolyline
 66
     1
 10
0.0
 20
0.0
 30
0.0
  0
VERTEX
  5
28D
330
28C
100
AcDbEntity
  8
Camada 1
 62
     7
420
 16777215
370
    53
100
AcDbVertex
100
AcDb2dVertex
 10
863.0260684950409
 20
-181.2167001128675
 30
0.0
  0
VERTEX
  5
28E
330
28C
100
AcDbEntity
  8
Camada 1
 62
     7
420
 16777215
370
    53
100
AcDbVertex
100
AcDb2dVertex
 10
863.0260684950409
 20
-182.2178233634839
 30
0.0
  0
SEQEND
  5
28F
330
28C
100
AcDbEntity
  8
Camada 1
 62
     7
420
 16777215
370
    53
  0
POLYLINE
  5
290
330
1F
100
AcDbEntity
  8
Camada 1
 62
     7
420
 16777215
370
    53
100
AcDb2dPolyline
 66
     1
 10
0.0
 20
0.0
 30
0.0
  0
VERTEX
  5
291
330
290
100
AcDbEntity
  8
Camada 1
 62
     7
420
 16777215
370
    53
100
AcDbVertex
100
AcDb2dVertex
 10
879.0436956170552
 20
-183.0186960973891
 30
0.0
  0
VERTEX
  5
292
330
290
100
AcDbEntity
  8
Camada 1
 62
     7
420
 16777215
370
    53
100
AcDbVertex
100
AcDb2dVertex
 10
879.0436956170552
 20
-305.3528791986179
 30
0.0
  0
SEQEND
  5
293
330
290
100
AcDbEntity
  8
Camada 1
 62
     7
420
 16777215
370
    53
  0
POLYLINE
  5
294
330
1F
100
AcDbEntity
  8
Camada 1
 62
     7
420
 16777215
370
    53
100
AcDb2dPolyline
 66
     1
 10
0.0
 20
0.0
 30
0.0
  0
VERTEX
  5
295
330
294
100
AcDbEntity
  8
Camada 1
 62
     7
420
 16777215
370
    53
100
AcDbVertex
100
AcDb2dVertex
 10
884.0491394262126
 20
-181.2167001128675
 30
0.0
  0
VERTEX
  5
296
330
294
100
AcDbEntity
  8
Camada 1
 62
     7
420
 16777215
370
    53
100
AcDbVertex
100
AcDb2dVertex
 10
884.0491394262126
 20
-182.2178233634839
 30
0.0
  0
SEQEND
  5
297
330
294
100
AcDbEntity
  8
Camada 1
 62
     7
420
 16777215
370
    53
  0
POLYLINE
  5
298
330
1F
100
AcDbEntity
  8
Camada 1
 62
     7
420
 16777215
370
    53
100
AcDb2dPolyline
 66
     1
 10
0.0
 20
0.0
 30
0.0
  0
VERTEX
  5
299
330
298
100
AcDbEntity
  8
Camada 1
 62
     7
420
 16777215
370
    53
100
AcDbVertex
100
AcDb2dVertex
 10
886.0513859274416
 20
-182.2178233634839
 30
0.0
  0
VERTEX
  5
29A
330
298
100
AcDbEntity
  8
Camada 1
 62
     7
420
 16777215
370
    53
100
AcDbVertex
100
AcDb2dVertex
 10
886.0513859274416
 20
-181.2167001128675
 30
0.0
  0
SEQEND
  5
29B
330
298
100
AcDbEntity
  8
Camada 1
 62
     7
420
 16777215
370
    53
  0
POLYLINE
  5
29C
330
1F
100
AcDbEntity
  8
Camada 1
 62
     7
420
 16777215
370
    53
100
AcDb2dPolyline
 66
     1
 10
0.0
 20
0.0
 30
0.0
  0
VERTEX
  5
29D
330
29C
100
AcDbEntity
  8
Camada 1
 62
     7
420
 16777215
370
    53
100
AcDbVertex
100
AcDb2dVertex
 10
908.0754938872614
 20
-177.212336443348
 30
0.0
  0
VERTEX
  5
29E
330
29C
100
AcDbEntity
  8
Camada 1
 62
     7
420
 16777215
370
    53
100
AcDbVertex
100
AcDb2dVertex
 10
908.0754938872614
 20
-178.213416582986
 30
0.0
  0
SEQEND
  5
29F
330
29C
100
AcDbEntity
  8
Camada 1
 62
     7
420
 16777215
370
    53
  0
SPLINE
  5
2A0
330
1F
100
AcDbEntity
  8
Camada 1
 62
     7
420
 16777215
370
    53
100
AcDbSpline
210
0.0
220
0.0
230
1.0
 70
     8
 71
     3
 72
     8
 73
     4
 74
     0
 42
0.0000000001
 43
0.0000000001
 12
1.0
 22
0.0
 32
0.0
 13
1.0
 23
0.0
 33
0.0
 40
0.0
 40
0.0
 40
0.0
 40
0.0
 40
1.0
 40
1.0
 40
1.0
 40
1.0
 10
289.8974065850521
 20
419.7891617167185
 30
0.0
 10
282.9862848769128
 20
419.7891617167185
 30
0.0
 10
277.3836677292144
 20
414.1866307909934
 30
0.0
 10
277.3836677292144
 20
407.2754228608811
 30
0.0
  0
SPLINE
  5
2A1
330
1F
100
AcDbEntity
  8
Camada 1
 62
     7
420
 16777215
370
    53
100
AcDbSpline
210
0.0
220
0.0
230
1.0
 70
     8
 71
     3
 72
     8
 73
     4
 74
     0
 42
0.0000000001
 43
0.0000000001
 12
1.0
 22
0.0
 32
0.0
 13
1.0
 23
0.0
 33
0.0
 40
0.0
 40
0.0
 40
0.0
 40
0.0
 40
1.0
 40
1.0
 40
1.0
 40
1.0
 10
277.3836677292144
 20
31.86368829570322
 30
0.0
 10
277.3836677292144
 20
24.95248036560057
 30
0.0
 10
282.9862848769128
 20
19.34994943987547
 30
0.0
 10
289.8974065850521
 20
19.34994943987547
 30
0.0
  0
SPLINE
  5
2A2
330
1F
100
AcDbEntity
  8
Camada 1
 62
     7
420
 16777215
370
    53
100
AcDbSpline
210
0.0
220
0.0
230
1.0
 70
     8
 71
     3
 72
     8
 73
     4
 74
     0
 42
0.0000000001
 43
0.0000000001
 12
1.0
 22
0.0
 32
0.0
 13
1.0
 23
0.0
 33
0.0
 40
0.0
 40
0.0
 40
0.0
 40
0.0
 40
1.0
 40
1.0
 40
1.0
 40
1.0
 10
665.3091842612049
 20
19.34994943987547
 30
0.0
 10
672.2203059693436
 20
19.34994943987547
 30
0.0
 10
677.8229231170308
 20
24.95248036560057
 30
0.0
 10
677.8229231170308
 20
31.86368829570322
 30
0.0
  0
SPLINE
  5
2A3
330
1F
100
AcDbEntity
  8
Camada 1
 62
     7
420
 16777215
370
    53
100
AcDbSpline
210
0.0
220
0.0
230
1.0
 70
     8
 71
     3
 72
     8
 73
     4
 74
     0
 42
0.0000000001
 43
0.0000000001
 12
1.0
 22
0.0
 32
0.0
 13
1.0
 23
0.0
 33
0.0
 40
0.0
 40
0.0
 40
0.0
 40
0.0
 40
1.0
 40
1.0
 40
1.0
 40
1.0
 10
677.8229231170308
 20
407.2754228608811
 30
0.0
 10
677.8229231170308
 20
414.1866307909934
 30
0.0
 10
672.2203059693436
 20
419.7891617167185
 30
0.0
 10
665.3091842612049
 20
419.7891617167185
 30
0.0
  0
SPLINE
  5
2A4
330
1F
100
AcDbEntity
  8
Camada 1
 62
     7
420
 16777215
370
    53
100
AcDbSpline
210
0.0
220
0.0
230
1.0
 70
     8
 71
     3
 72
     8
 73
     4
 74
     0
 42
0.0000000001
 43
0.0000000001
 12
1.0
 22
0.0
 32
0.0
 13
1.0
 23
0.0
 33
0.0
 40
0.0
 40
0.0
 40
0.0
 40
0.0
 40
1.0
 40
1.0
 40
1.0
 40
1.0
 10
720.3695834936933
 20
419.7891617167185
 30
0.0
 10
713.4584617855553
 20
419.7891617167185
 30
0.0
 10
707.8558446378546
 20
414.1866307909934
 30
0.0
 10
707.8558446378546
 20
407.2754228608811
 30
0.0
  0
SPLINE
  5
2A5
330
1F
100
AcDbEntity
  8
Camada 1
 62
     7
420
 16777215
370
    53
100
AcDbSpline
210
0.0
220
0.0
230
1.0
 70
     8
 71
     3
 72
     8
 73
     4
 74
     0
 42
0.0000000001
 43
0.0000000001
 12
1.0
 22
0.0
 32
0.0
 13
1.0
 23
0.0
 33
0.0
 40
0.0
 40
0.0
 40
0.0
 40
0.0
 40
1.0
 40
1.0
 40
1.0
 40
1.0
 10
707.8558446378546
 20
31.86368829570322
 30
0.0
 10
707.8558446378546
 20
24.95248036560057
 30
0.0
 10
713.4584617855553
 20
19.34994943987547
 30
0.0
 10
720.3695834936933
 20
19.34994943987547
 30
0.0
  0
SPLINE
  5
2A6
330
1F
100
AcDbEntity
  8
Camada 1
 62
     7
420
 16777215
370
    53
100
AcDbSpline
210
0.0
220
0.0
230
1.0
 70
     8
 71
     3
 72
     8
 73
     4
 74
     0
 42
0.0000000001
 43
0.0000000001
 12
1.0
 22
0.0
 32
0.0
 13
1.0
 23
0.0
 33
0.0
 40
0.0
 40
0.0
 40
0.0
 40
0.0
 40
1.0
 40
1.0
 40
1.0
 40
1.0
 10
865.5288335106032
 20
19.34994943987547
 30
0.0
 10
872.4399552187509
 20
19.34994943987547
 30
0.0
 10
878.04257236644
 20
24.95248036560057
 30
0.0
 10
878.04257236644
 20
31.86368829570322
 30
0.0
  0
SPLINE
  5
2A7
330
1F
100
AcDbEntity
  8
Camada 1
 62
     7
420
 16777215
370
    53
100
AcDbSpline
210
0.0
220
0.0
230
1.0
 70
     8
 71
     3
 72
     8
 73
     4
 74
     0
 42
0.0000000001
 43
0.0000000001
 12
1.0
 22
0.0
 32
0.0
 13
1.0
 23
0.0
 33
0.0
 40
0.0
 40
0.0
 40
0.0
 40
0.0
 40
1.0
 40
1.0
 40
1.0
 40
1.0
 10
878.04257236644
 20
407.2754228608811
 30
0.0
 10
878.04257236644
 20
414.1866307909934
 30
0.0
 10
872.4399552187509
 20
419.7891617167185
 30
0.0
 10
865.5288335106032
 20
419.7891617167185
 30
0.0
  0
SPLINE
  5
2A8
330
1F
100
AcDbEntity
  8
Camada 1
 62
     7
420
 16777215
370
    53
100
AcDbSpline
210
0.0
220
0.0
230
1.0
 70
     8
 71
     3
 72
     8
 73
     4
 74
     0
 42
0.0000000001
 43
0.0000000001
 12
1.0
 22
0.0
 32
0.0
 13
1.0
 23
0.0
 33
0.0
 40
0.0
 40
0.0
 40
0.0
 40
0.0
 40
1.0
 40
1.0
 40
1.0
 40
1.0
 10
908.0754938872614
 20
443.8155161777589
 30
0.0
 10
908.0754938872614
 20
447.1329063308531
 30
0.0
 10
905.3862307586113
 20
449.822169459507
 30
0.0
 10
902.0689268274913
 20
449.822169459507
 30
0.0
  0
SPLINE
  5
2A9
330
1F
100
AcDbEntity
  8
Camada 1
 62
     7
420
 16777215
370
    53
100
AcDbSpline
210
0.0
220
0.0
230
1.0
 70
     8
 71
     3
 72
     8
 73
     4
 74
     0
 42
0.0000000001
 43
0.0000000001
 12
1.0
 22
0.0
 32
0.0
 13
1.0
 23
0.0
 33
0.0
 40
0.0
 40
0.0
 40
0.0
 40
0.0
 40
1.0
 40
1.0
 40
1.0
 40
1.0
 10
902.0689268274913
 20
-10.68301519192175
 30
0.0
 10
905.3862307586113
 20
-10.68301519192175
 30
0.0
 10
908.0754938872614
 20
-7.993752063281974
 30
0.0
 10
908.0754938872614
 20
-4.67640502117324
 30
0.0
  0
SPLINE
  5
2AA
330
1F
100
AcDbEntity
  8
Camada 1
 62
     7
420
 16777215
370
    53
100
AcDbSpline
210
0.0
220
0.0
230
1.0
 70
     8
 71
     3
 72
     8
 73
     4
 74
     0
 42
0.0000000001
 43
0.0000000001
 12
1.0
 22
0.0
 32
0.0
 13
1.0
 23
0.0
 33
0.0
 40
0.0
 40
0.0
 40
0.0
 40
0.0
 40
1.0
 40
1.0
 40
1.0
 40
1.0
 10
247.3507462083912
 20
-4.67640502117324
 30
0.0
 10
247.3507462083912
 20
-7.993752063281974
 30
0.0
 10
250.0399662260653
 20
-10.68301519192175
 30
0.0
 10
253.3573132681625
 20
-10.68301519192175
 30
0.0
  0
SPLINE
  5
2AB
330
1F
100
AcDbEntity
  8
Camada 1
 62
     7
420
 16777215
370
    53
100
AcDbSpline
210
0.0
220
0.0
230
1.0
 70
     8
 71
     3
 72
     8
 73
     4
 74
     0
 42
0.0000000001
 43
0.0000000001
 12
1.0
 22
0.0
 32
0.0
 13
1.0
 23
0.0
 33
0.0
 40
0.0
 40
0.0
 40
0.0
 40
0.0
 40
1.0
 40
1.0
 40
1.0
 40
1.0
 10
253.3573132681625
 20
449.822169459507
 30
0.0
 10
250.0399662260653
 20
449.822169459507
 30
0.0
 10
247.3507462083912
 20
447.1329063308531
 30
0.0
 10
247.3507462083912
 20
443.8155161777589
 30
0.0
  0
SPLINE
  5
2AC
330
1F
100
AcDbEntity
  8
Camada 1
 62
     7
420
 16777215
370
    53
100
AcDbSpline
210
0.0
220
0.0
230
1.0
 70
     8
 71
     3
 72
     8
 73
     4
 74
     0
 42
0.0000000001
 43
0.0000000001
 12
1.0
 22
0.0
 32
0.0
 13
1.0
 23
0.0
 33
0.0
 40
0.0
 40
0.0
 40
0.0
 40
0.0
 40
1.0
 40
1.0
 40
1.0
 40
1.0
 10
730.345033883848
 20
41.83905246390744
 30
0.0
 10
731.283732430869
 20
40.90035391687746
 30
0.0
 10
732.5568859851447
 20
40.37302037103753
 30
0.0
 10
733.8844456001465
 20
40.37302037103753
 30
0.0
  0
SPLINE
  5
2AD
330
1F
100
AcDbEntity
  8
Camada 1
 62
     7
420
 16777215
370
    53
100
AcDbSpline
210
0.0
220
0.0
230
1.0
 70
     8
 71
     3
 72
     8
 73
     4
 74
     0
 42
0.0000000001
 43
0.0000000001
 12
1.0
 22
0.0
 32
0.0
 13
1.0
 23
0.0
 33
0.0
 40
0.0
 40
0.0
 40
0.0
 40
0.0
 40
1.0
 40
1.0
 40
1.0
 40
1.0
 10
728.878915569025
 20
45.37846418019181
 30
0.0
 10
728.878915569025
 20
44.05099078715723
 30
0.0
 10
729.4063353368327
 20
42.77775101092521
 30
0.0
 10
730.345033883848
 20
41.83905246390744
 30
0.0
  0
SPLINE
  5
2AE
330
1F
100
AcDbEntity
  8
Camada 1
 62
     7
420
 16777215
370
    53
100
AcDbSpline
210
0.0
220
0.0
230
1.0
 70
     8
 71
     3
 72
     8
 73
     4
 74
     0
 42
0.0000000001
 43
0.0000000001
 12
1.0
 22
0.0
 32
0.0
 13
1.0
 23
0.0
 33
0.0
 40
0.0
 40
0.0
 40
0.0
 40
0.0
 40
1.0
 40
1.0
 40
1.0
 40
1.0
 10
855.5533831204448
 20
41.83905246390744
 30
0.0
 10
856.4921678894386
 20
42.77775101092521
 30
0.0
 10
857.0195014352798
 20
44.05099078715723
 30
0.0
 10
857.0195014352798
 20
45.37846418019181
 30
0.0
  0
SPLINE
  5
2AF
330
1F
100
AcDbEntity
  8
Camada 1
 62
     7
420
 16777215
370
    53
100
AcDbSpline
210
0.0
220
0.0
230
1.0
 70
     8
 71
     3
 72
     8
 73
     4
 74
     0
 42
0.0000000001
 43
0.0000000001
 12
1.0
 22
0.0
 32
0.0
 13
1.0
 23
0.0
 33
0.0
 40
0.0
 40
0.0
 40
0.0
 40
0.0
 40
1.0
 40
1.0
 40
1.0
 40
1.0
 10
852.0139714041597
 20
40.37302037103753
 30
0.0
 10
853.3415310191499
 20
40.37302037103753
 30
0.0
 10
854.6146845734295
 20
40.90035391687746
 30
0.0
 10
855.5533831204448
 20
41.83905246390744
 30
0.0
  0
SPLINE
  5
2B0
330
1F
100
AcDbEntity
  8
Camada 1
 62
     7
420
 16777215
370
    53
100
AcDbSpline
210
0.0
220
0.0
230
1.0
 70
     8
 71
     3
 72
     8
 73
     4
 74
     0
 42
0.0000000001
 43
0.0000000001
 12
1.0
 22
0.0
 32
0.0
 13
1.0
 23
0.0
 33
0.0
 40
0.0
 40
0.0
 40
0.0
 40
0.0
 40
1.0
 40
1.0
 40
1.0
 40
1.0
 10
852.0139714041597
 20
398.7660907855487
 30
0.0
 10
853.3415310191499
 20
398.7660907855487
 30
0.0
 10
854.6146845734295
 20
398.2387572397081
 30
0.0
 10
855.5533831204448
 20
397.3000586926897
 30
0.0
  0
SPLINE
  5
2B1
330
1F
100
AcDbEntity
  8
Camada 1
 62
     7
420
 16777215
370
    53
100
AcDbSpline
210
0.0
220
0.0
230
1.0
 70
     8
 71
     3
 72
     8
 73
     4
 74
     0
 42
0.0000000001
 43
0.0000000001
 12
1.0
 22
0.0
 32
0.0
 13
1.0
 23
0.0
 33
0.0
 40
0.0
 40
0.0
 40
0.0
 40
0.0
 40
1.0
 40
1.0
 40
1.0
 40
1.0
 10
855.5533831204448
 20
397.3000586926897
 30
0.0
 10
856.4921678894386
 20
396.3613601456694
 30
0.0
 10
857.0195014352798
 20
395.088206591393
 30
0.0
 10
857.0195014352798
 20
393.7606469764021
 30
0.0
  0
SPLINE
  5
2B2
330
1F
100
AcDbEntity
  8
Camada 1
 62
     7
420
 16777215
370
    53
100
AcDbSpline
210
0.0
220
0.0
230
1.0
 70
     8
 71
     3
 72
     8
 73
     4
 74
     0
 42
0.0000000001
 43
0.0000000001
 12
1.0
 22
0.0
 32
0.0
 13
1.0
 23
0.0
 33
0.0
 40
0.0
 40
0.0
 40
0.0
 40
0.0
 40
1.0
 40
1.0
 40
1.0
 40
1.0
 10
730.345033883848
 20
397.3000586926897
 30
0.0
 10
729.4063353368327
 20
396.3613601456694
 30
0.0
 10
728.878915569025
 20
395.088206591393
 30
0.0
 10
728.878915569025
 20
393.7606469764021
 30
0.0
  0
SPLINE
  5
2B3
330
1F
100
AcDbEntity
  8
Camada 1
 62
     7
420
 16777215
370
    53
100
AcDbSpline
210
0.0
220
0.0
230
1.0
 70
     8
 71
     3
 72
     8
 73
     4
 74
     0
 42
0.0000000001
 43
0.0000000001
 12
1.0
 22
0.0
 32
0.0
 13
1.0
 23
0.0
 33
0.0
 40
0.0
 40
0.0
 40
0.0
 40
0.0
 40
1.0
 40
1.0
 40
1.0
 40
1.0
 10
733.8844456001465
 20
398.7660907855487
 30
0.0
 10
732.5568859851447
 20
398.7660907855487
 30
0.0
 10
731.283732430869
 20
398.2387572397081
 30
0.0
 10
730.345033883848
 20
397.3000586926897
 30
0.0
  0
SPLINE
  5
2B4
330
1F
100
AcDbEntity
  8
Camada 1
 62
     7
420
 16777215
370
    53
100
AcDbSpline
210
0.0
220
0.0
230
1.0
 70
     8
 71
     3
 72
     8
 73
     4
 74
     0
 42
0.0000000001
 43
0.0000000001
 12
1.0
 22
0.0
 32
0.0
 13
1.0
 23
0.0
 33
0.0
 40
0.0
 40
0.0
 40
0.0
 40
0.0
 40
1.0
 40
1.0
 40
1.0
 40
1.0
 10
276.3825875895745
 20
-366.4198886018664
 30
0.0
 10
276.3825875895745
 20
-375.2661330104757
 30
0.0
 10
283.5538840810023
 20
-382.4374510573972
 30
0.0
 10
292.4001716006125
 20
-382.4374510573972
 30
0.0
  0
SPLINE
  5
2B5
330
1F
100
AcDbEntity
  8
Camada 1
 62
     7
420
 16777215
370
    53
100
AcDbSpline
210
0.0
220
0.0
230
1.0
 70
     8
 71
     3
 72
     8
 73
     4
 74
     0
 42
0.0000000001
 43
0.0000000001
 12
1.0
 22
0.0
 32
0.0
 13
1.0
 23
0.0
 33
0.0
 40
0.0
 40
0.0
 40
0.0
 40
0.0
 40
1.0
 40
1.0
 40
1.0
 40
1.0
 10
419.3826671266046
 20
-389.7141970136019
 30
0.0
 10
419.5509724048096
 20
-389.8193662569811
 30
0.0
 10
419.7339354172825
 20
-389.8989491318718
 30
0.0
 10
419.9256068483529
 20
-389.9502943127953
 30
0.0
  0
SPLINE
  5
2B6
330
1F
100
AcDbEntity
  8
Camada 1
 62
     7
420
 16777215
370
    53
100
AcDbSpline
210
0.0
220
0.0
230
1.0
 70
     8
 71
     3
 72
     8
 73
     4
 74
     0
 42
0.0000000001
 43
0.0000000001
 12
1.0
 22
0.0
 32
0.0
 13
1.0
 23
0.0
 33
0.0
 40
0.0
 40
0.0
 40
0.0
 40
0.0
 40
1.0
 40
1.0
 40
1.0
 40
1.0
 10
535.2810271088903
 20
-389.9502943127953
 30
0.0
 10
535.4726985399524
 20
-389.8989491318718
 30
0.0
 10
535.6556615524231
 20
-389.8193662569811
 30
0.0
 10
535.823966830627
 20
-389.7141970136019
 30
0.0
  0
SPLINE
  5
2B7
330
1F
100
AcDbEntity
  8
Camada 1
 62
     7
420
 16777215
370
    53
100
AcDbSpline
210
0.0
220
0.0
230
1.0
 70
     8
 71
     3
 72
     8
 73
     4
 74
     0
 42
0.0000000001
 43
0.0000000001
 12
1.0
 22
0.0
 32
0.0
 13
1.0
 23
0.0
 33
0.0
 40
0.0
 40
0.0
 40
0.0
 40
0.0
 40
1.0
 40
1.0
 40
1.0
 40
1.0
 10
266.3885132546997
 20
-179.340596348318
 30
0.0
 10
266.6741666290276
 20
-180.4451428475099
 30
0.0
 10
267.6706770044463
 20
-181.2167001128675
 30
0.0
 10
268.8115660624267
 20
-181.2167001128675
 30
0.0
  0
SPLINE
  5
2B8
330
1F
100
AcDbEntity
  8
Camada 1
 62
     7
420
 16777215
370
    53
100
AcDbSpline
210
0.0
220
0.0
230
1.0
 70
     8
 71
     3
 72
     8
 73
     4
 74
     0
 42
0.0000000001
 43
0.0000000001
 12
1.0
 22
0.0
 32
0.0
 13
1.0
 23
0.0
 33
0.0
 40
0.0
 40
0.0
 40
0.0
 40
0.0
 40
1.0
 40
1.0
 40
1.0
 40
1.0
 10
266.388383921747
 20
-179.3399927945563
 30
0.0
 10
266.2269764008524
 20
-178.7143662071396
 30
0.0
 10
265.6835193473153
 20
-178.2621319939427
 30
0.0
 10
265.0390101492783
 20
-178.2170810165476
 30
0.0
  0
SPLINE
  5
2B9
330
1F
100
AcDbEntity
  8
Camada 1
 62
     7
420
 16777215
370
    53
100
AcDbSpline
210
0.0
220
0.0
230
1.0
 70
     8
 71
     3
 72
     8
 73
     4
 74
     0
 42
0.0000000001
 43
0.0000000001
 12
1.0
 22
0.0
 32
0.0
 13
1.0
 23
0.0
 33
0.0
 40
0.0
 40
0.0
 40
0.0
 40
0.0
 40
1.0
 40
1.0
 40
1.0
 40
1.0
 10
276.3825875895745
 20
-183.0186960973891
 30
0.0
 10
276.3825875895745
 20
-182.5763774103114
 30
0.0
 10
276.0240335427559
 20
-182.2178233634839
 30
0.0
 10
275.5817148556796
 20
-182.2178233634839
 30
0.0
  0
SPLINE
  5
2BA
330
1F
100
AcDbEntity
  8
Camada 1
 62
     7
420
 16777215
370
    53
100
AcDbSpline
210
0.0
220
0.0
230
1.0
 70
     8
 71
     3
 72
     8
 73
     4
 74
     0
 42
0.0000000001
 43
0.0000000001
 12
1.0
 22
0.0
 32
0.0
 13
1.0
 23
0.0
 33
0.0
 40
0.0
 40
0.0
 40
0.0
 40
0.0
 40
1.0
 40
1.0
 40
1.0
 40
1.0
 10
862.025031466391
 20
-322.3715433492827
 30
0.0
 10
871.424174233859
 20
-322.3715433492827
 30
0.0
 10
879.0436956170552
 20
-314.752021966084
 30
0.0
 10
879.0436956170552
 20
-305.3528791986179
 30
0.0
  0
SPLINE
  5
2BB
330
1F
100
AcDbEntity
  8
Camada 1
 62
     7
420
 16777215
370
    53
100
AcDbSpline
210
0.0
220
0.0
230
1.0
 70
     8
 71
     3
 72
     8
 73
     4
 74
     0
 42
0.0000000001
 43
0.0000000001
 12
1.0
 22
0.0
 32
0.0
 13
1.0
 23
0.0
 33
0.0
 40
0.0
 40
0.0
 40
0.0
 40
0.0
 40
1.0
 40
1.0
 40
1.0
 40
1.0
 10
706.8548076092054
 20
-305.3528791986179
 30
0.0
 10
706.8548076092054
 20
-314.752021966084
 30
0.0
 10
714.474328992404
 20
-322.3715433492827
 30
0.0
 10
723.8734717598663
 20
-322.3715433492827
 30
0.0
  0
SPLINE
  5
2BC
330
1F
100
AcDbEntity
  8
Camada 1
 62
     7
420
 16777215
370
    53
100
AcDbSpline
210
0.0
220
0.0
230
1.0
 70
     8
 71
     3
 72
     8
 73
     4
 74
     0
 42
0.0000000001
 43
0.0000000001
 12
1.0
 22
0.0
 32
0.0
 13
1.0
 23
0.0
 33
0.0
 40
0.0
 40
0.0
 40
0.0
 40
0.0
 40
1.0
 40
1.0
 40
1.0
 40
1.0
 10
662.8064192456438
 20
-382.4374510573972
 30
0.0
 10
671.6527067652413
 20
-382.4374510573972
 30
0.0
 10
678.8240463676581
 20
-375.2661330104757
 30
0.0
 10
678.8240463676581
 20
-366.4198886018664
 30
0.0
  0
SPLINE
  5
2BD
330
1F
100
AcDbEntity
  8
Camada 1
 62
     7
420
 16777215
370
    53
100
AcDbSpline
210
0.0
220
0.0
230
1.0
 70
     8
 71
     3
 72
     8
 73
     4
 74
     0
 42
0.0000000001
 43
0.0000000001
 12
1.0
 22
0.0
 32
0.0
 13
1.0
 23
0.0
 33
0.0
 40
0.0
 40
0.0
 40
0.0
 40
0.0
 40
1.0
 40
1.0
 40
1.0
 40
1.0
 10
850.626918632411
 20
-327.8822047699217
 30
0.0
 10
850.8185900634811
 20
-327.8308595889982
 30
0.0
 10
851.0015530759541
 20
-327.7512767141068
 30
0.0
 10
851.1698583541599
 20
-327.6460859152323
 30
0.0
  0
SPLINE
  5
2BE
330
1F
100
AcDbEntity
  8
Camada 1
 62
     7
420
 16777215
370
    53
100
AcDbSpline
210
0.0
220
0.0
230
1.0
 70
     8
 71
     3
 72
     8
 73
     4
 74
     0
 42
0.0000000001
 43
0.0000000001
 12
1.0
 22
0.0
 32
0.0
 13
1.0
 23
0.0
 33
0.0
 40
0.0
 40
0.0
 40
0.0
 40
0.0
 40
1.0
 40
1.0
 40
1.0
 40
1.0
 10
734.7285586501463
 20
-327.6460859152323
 30
0.0
 10
734.8968639283387
 20
-327.7512767141068
 30
0.0
 10
735.0798269408116
 20
-327.8308595889982
 30
0.0
 10
735.2714983718855
 20
-327.8822047699217
 30
0.0
  0
SPLINE
  5
2BF
330
1F
100
AcDbEntity
  8
Camada 1
 62
     7
420
 16777215
370
    53
100
AcDbSpline
210
0.0
220
0.0
230
1.0
 70
     8
 71
     3
 72
     8
 73
     4
 74
     0
 42
0.0000000001
 43
0.0000000001
 12
1.0
 22
0.0
 32
0.0
 13
1.0
 23
0.0
 33
0.0
 40
0.0
 40
0.0
 40
0.0
 40
0.0
 40
1.0
 40
1.0
 40
1.0
 40
1.0
 10
680.4257918354601
 20
-282.3276479881818
 30
0.0
 10
679.5411544613055
 20
-282.3276479881818
 30
0.0
 10
678.8240463676581
 20
-283.0447560818407
 30
0.0
 10
678.8240463676581
 20
-283.9293934559934
 30
0.0
  0
SPLINE
  5
2C0
330
1F
100
AcDbEntity
  8
Camada 1
 62
     7
420
 16777215
370
    53
100
AcDbSpline
210
0.0
220
0.0
230
1.0
 70
     8
 71
     3
 72
     8
 73
     4
 74
     0
 42
0.0000000001
 43
0.0000000001
 12
1.0
 22
0.0
 32
0.0
 13
1.0
 23
0.0
 33
0.0
 40
0.0
 40
0.0
 40
0.0
 40
0.0
 40
1.0
 40
1.0
 40
1.0
 40
1.0
 10
703.3509193430292
 20
-283.9293934559934
 30
0.0
 10
703.3509193430292
 20
-283.0447560818407
 30
0.0
 10
702.6338112493786
 20
-282.3276479881818
 30
0.0
 10
701.7491738752176
 20
-282.3276479881818
 30
0.0
  0
SPLINE
  5
2C1
330
1F
100
AcDbEntity
  8
Camada 1
 62
     7
420
 16777215
370
    53
100
AcDbSpline
210
0.0
220
0.0
230
1.0
 70
     8
 71
     3
 72
     8
 73
     4
 74
     0
 42
0.0000000001
 43
0.0000000001
 12
1.0
 22
0.0
 32
0.0
 13
1.0
 23
0.0
 33
0.0
 40
0.0
 40
0.0
 40
0.0
 40
0.0
 40
1.0
 40
1.0
 40
1.0
 40
1.0
 10
855.0682121161215
 20
-325.2164802380752
 30
0.0
 10
855.028636233593
 20
-325.2366561781817
 30
0.0
 10
854.9899225707214
 20
-325.2585565576158
 30
0.0
 10
854.9521573494898
 20
-325.2821382654004
 30
0.0
  0
SPLINE
  5
2C2
330
1F
100
AcDbEntity
  8
Camada 1
 62
     7
420
 16777215
370
    53
100
AcDbSpline
210
0.0
220
0.0
230
1.0
 70
     8
 71
     3
 72
     8
 73
     4
 74
     0
 42
0.0000000001
 43
0.0000000001
 12
1.0
 22
0.0
 32
0.0
 13
1.0
 23
0.0
 33
0.0
 40
0.0
 40
0.0
 40
0.0
 40
0.0
 40
1.0
 40
1.0
 40
1.0
 40
1.0
 10
730.9462596548069
 20
-325.2821382654004
 30
0.0
 10
730.9085806555365
 20
-325.2585565576158
 30
0.0
 10
730.8698669926771
 20
-325.2366561781817
 30
0.0
 10
730.8302048881764
 20
-325.2164802380752
 30
0.0
  0
SPLINE
  5
2C3
330
1F
100
AcDbEntity
  8
Camada 1
 62
     7
420
 16777215
370
    40
100
AcDbSpline
210
0.0
220
0.0
230
1.0
 70
     8
 71
     3
 72
     8
 73
     4
 74
     0
 42
0.0000000001
 43
0.0000000001
 12
1.0
 22
0.0
 32
0.0
 13
1.0
 23
0.0
 33
0.0
 40
0.0
 40
0.0
 40
0.0
 40
0.0
 40
1.0
 40
1.0
 40
1.0
 40
1.0
 10
680.4257918354601
 20
-283.3287281278185
 30
0.0
 10
680.0940959311382
 20
-283.3287281278185
 30
0.0
 10
679.825169618272
 20
-283.5976544406853
 30
0.0
 10
679.825169618272
 20
-283.9293934559934
 30
0.0
  0
SPLINE
  5
2C4
330
1F
100
AcDbEntity
  8
Camada 1
 62
     7
420
 16777215
370
    40
100
AcDbSpline
210
0.0
220
0.0
230
1.0
 70
     8
 71
     3
 72
     8
 73
     4
 74
     0
 42
0.0000000001
 43
0.0000000001
 12
1.0
 22
0.0
 32
0.0
 13
1.0
 23
0.0
 33
0.0
 40
0.0
 40
0.0
 40
0.0
 40
0.0
 40
1.0
 40
1.0
 40
1.0
 40
1.0
 10
702.3497960924134
 20
-283.9293934559934
 30
0.0
 10
702.3497960924134
 20
-283.5976544406853
 30
0.0
 10
702.0809560015099
 20
-283.3287281278185
 30
0.0
 10
701.7491738752176
 20
-283.3287281278185
 30
0.0
  0
SPLINE
  5
2C5
330
1F
100
AcDbEntity
  8
Camada 1
 62
     7
420
 16777215
370
    53
100
AcDbSpline
210
0.0
220
0.0
230
1.0
 70
     8
 71
     3
 72
     8
 73
     4
 74
     0
 42
0.0000000001
 43
0.0000000001
 12
1.0
 22
0.0
 32
0.0
 13
1.0
 23
0.0
 33
0.0
 40
0.0
 40
0.0
 40
0.0
 40
0.0
 40
1.0
 40
1.0
 40
1.0
 40
1.0
 10
886.6146740332358
 20
-181.2167001128675
 30
0.0
 10
887.7559079790744
 20
-181.2167001128675
 30
0.0
 10
888.7526339094085
 20
-180.4446686266906
 30
0.0
 10
889.0379423958701
 20
-179.339647906689
 30
0.0
  0
SPLINE
  5
2C6
330
1F
100
AcDbEntity
  8
Camada 1
 62
     7
420
 16777215
370
    53
100
AcDbSpline
210
0.0
220
0.0
230
1.0
 70
     8
 71
     3
 72
     8
 73
     4
 74
     0
 42
0.0000000001
 43
0.0000000001
 12
1.0
 22
0.0
 32
0.0
 13
1.0
 23
0.0
 33
0.0
 40
0.0
 40
0.0
 40
0.0
 40
0.0
 40
1.0
 40
1.0
 40
1.0
 40
1.0
 10
890.3872299463742
 20
-178.2170810165476
 30
0.0
 10
889.7428069703108
 20
-178.2621319939427
 30
0.0
 10
889.1994361387293
 20
-178.7141937632105
 30
0.0
 10
889.0379423958701
 20
-179.339647906689
 30
0.0
  0
SPLINE
  5
2C7
330
1F
100
AcDbEntity
  8
Camada 1
 62
     7
420
 16777215
370
    53
100
AcDbSpline
210
0.0
220
0.0
230
1.0
 70
     8
 71
     3
 72
     8
 73
     4
 74
     0
 42
0.0000000001
 43
0.0000000001
 12
1.0
 22
0.0
 32
0.0
 13
1.0
 23
0.0
 33
0.0
 40
0.0
 40
0.0
 40
0.0
 40
0.0
 40
1.0
 40
1.0
 40
1.0
 40
1.0
 10
706.8548076092054
 20
-183.0186960973891
 30
0.0
 10
706.8548076092054
 20
-182.5763774103114
 30
0.0
 10
706.4962104513962
 20
-182.2178233634839
 30
0.0
 10
706.0538917643205
 20
-182.2178233634839
 30
0.0
  0
SPLINE
  5
2C8
330
1F
100
AcDbEntity
  8
Camada 1
 62
     7
420
 16777215
370
    53
100
AcDbSpline
210
0.0
220
0.0
230
1.0
 70
     8
 71
     3
 72
     8
 73
     4
 74
     0
 42
0.0000000001
 43
0.0000000001
 12
1.0
 22
0.0
 32
0.0
 13
1.0
 23
0.0
 33
0.0
 40
0.0
 40
0.0
 40
0.0
 40
0.0
 40
1.0
 40
1.0
 40
1.0
 40
1.0
 10
879.8445252399729
 20
-182.2178233634839
 30
0.0
 10
879.4022065528972
 20
-182.2178233634839
 30
0.0
 10
879.0436956170552
 20
-182.5763774103114
 30
0.0
 10
879.0436956170552
 20
-183.0186960973891
 30
0.0
  0
SPLINE
  5
2C9
330
1F
100
AcDbEntity
  8
Camada 1
 62
     7
420
 16777215
370
    53
100
AcDbSpline
210
0.0
220
0.0
230
1.0
 70
     8
 71
     3
 72
     8
 73
     4
 74
     0
 42
0.0000000001
 43
0.0000000001
 12
1.0
 22
0.0
 32
0.0
 13
1.0
 23
0.0
 33
0.0
 40
0.0
 40
0.0
 40
0.0
 40
0.0
 40
1.0
 40
1.0
 40
1.0
 40
1.0
 10
679.3247373259173
 20
-182.2761956346649
 30
0.0
 10
679.0220982242326
 20
-182.3985014938568
 30
0.0
 10
678.8240463676581
 20
-182.6922597330044
 30
0.0
 10
678.8240463676581
 20
-183.0186960973891
 30
0.0
  0
POLYLINE
  5
2CA
330
1F
100
AcDbEntity
  8
Camada 1
 62
     7
420
 16777215
370
    53
100
AcDb2dPolyline
 66
     1
 10
0.0
 20
0.0
 30
0.0
  0
VERTEX
  5
2CB
330
2CA
100
AcDbEntity
  8
Camada 1
 62
     7
420
 16777215
370
    53
100
AcDbVertex
100
AcDb2dVertex
 10
860.6719501493726
 20
-322.3715433492827
 30
0.0
  0
VERTEX
  5
2CC
330
2CA
100
AcDbEntity
  8
Camada 1
 62
     7
420
 16777215
370
    53
100
AcDbVertex
100
AcDb2dVertex
 10
860.1115073684753
 20
-322.6560758380438
 30
0.0
  0
VERTEX
  5
2CD
330
2CA
100
AcDbEntity
  8
Camada 1
 62
     7
420
 16777215
370
    53
100
AcDbVertex
100
AcDb2dVertex
 10
859.5510645875715
 20
-322.9406083268087
 30
0.0
  0
VERTEX
  5
2CE
330
2CA
100
AcDbEntity
  8
Camada 1
 62
     7
420
 16777215
370
    53
100
AcDbVertex
100
AcDb2dVertex
 10
858.9906218066723
 20
-323.225140815571
 30
0.0
  0
VERTEX
  5
2CF
330
2CA
100
AcDbEntity
  8
Camada 1
 62
     7
420
 16777215
370
    53
100
AcDbVertex
100
AcDb2dVertex
 10
858.4301790257806
 20
-323.5096301933575
 30
0.0
  0
VERTEX
  5
2D0
330
2CA
100
AcDbEntity
  8
Camada 1
 62
     7
420
 16777215
370
    53
100
AcDbVertex
100
AcDb2dVertex
 10
857.8698224668447
 20
-323.7941626821192
 30
0.0
  0
VERTEX
  5
2D1
330
2CA
100
AcDbEntity
  8
Camada 1
 62
     7
420
 16777215
370
    53
100
AcDbVertex
100
AcDb2dVertex
 10
857.3093796859517
 20
-324.0786951708816
 30
0.0
  0
VERTEX
  5
2D2
330
2CA
100
AcDbEntity
  8
Camada 1
 62
     7
420
 16777215
370
    53
100
AcDbVertex
100
AcDb2dVertex
 10
856.7489369050512
 20
-324.3632276596459
 30
0.0
  0
VERTEX
  5
2D3
330
2CA
100
AcDbEntity
  8
Camada 1
 62
     7
420
 16777215
370
    53
100
AcDbVertex
100
AcDb2dVertex
 10
856.18849412415
 20
-324.6477601484076
 30
0.0
  0
VERTEX
  5
2D4
330
2CA
100
AcDbEntity
  8
Camada 1
 62
     7
420
 16777215
370
    53
100
AcDbVertex
100
AcDb2dVertex
 10
855.6280513432604
 20
-324.9322495261947
 30
0.0
  0
VERTEX
  5
2D5
330
2CA
100
AcDbEntity
  8
Camada 1
 62
     7
420
 16777215
370
    53
100
AcDbVertex
100
AcDb2dVertex
 10
855.0676085623592
 20
-325.2167820149558
 30
0.0
  0
SEQEND
  5
2D6
330
2CA
100
AcDbEntity
  8
Camada 1
 62
     7
420
 16777215
370
    53
  0
POLYLINE
  5
2D7
330
1F
100
AcDbEntity
  8
Camada 1
 62
     7
420
 16777215
370
    53
100
AcDb2dPolyline
 66
     1
 10
0.0
 20
0.0
 30
0.0
  0
VERTEX
  5
2D8
330
2D7
100
AcDbEntity
  8
Camada 1
 62
     7
420
 16777215
370
    53
100
AcDbVertex
100
AcDb2dVertex
 10
725.2265530768847
 20
-322.3715433492827
 30
0.0
  0
VERTEX
  5
2D9
330
2D7
100
AcDbEntity
  8
Camada 1
 62
     7
420
 16777215
370
    53
100
AcDbVertex
100
AcDb2dVertex
 10
725.7869096358213
 20
-322.6560758380438
 30
0.0
  0
VERTEX
  5
2DA
330
2D7
100
AcDbEntity
  8
Camada 1
 62
     7
420
 16777215
370
    53
100
AcDbVertex
100
AcDb2dVertex
 10
726.3473524167213
 20
-322.9406083268087
 30
0.0
  0
VERTEX
  5
2DB
330
2D7
100
AcDbEntity
  8
Camada 1
 62
     7
420
 16777215
370
    53
100
AcDbVertex
100
AcDb2dVertex
 10
726.9077951976128
 20
-323.225140815571
 30
0.0
  0
VERTEX
  5
2DC
330
2D7
100
AcDbEntity
  8
Camada 1
 62
     7
420
 16777215
370
    53
100
AcDbVertex
100
AcDb2dVertex
 10
727.4682379785153
 20
-323.5096301933575
 30
0.0
  0
VERTEX
  5
2DD
330
2D7
100
AcDbEntity
  8
Camada 1
 62
     7
420
 16777215
370
    53
100
AcDbVertex
100
AcDb2dVertex
 10
728.0286807594172
 20
-323.7941626821192
 30
0.0
  0
VERTEX
  5
2DE
330
2D7
100
AcDbEntity
  8
Camada 1
 62
     7
420
 16777215
370
    53
100
AcDbVertex
100
AcDb2dVertex
 10
728.5891235403158
 20
-324.0786951708816
 30
0.0
  0
VERTEX
  5
2DF
330
2D7
100
AcDbEntity
  8
Camada 1
 62
     7
420
 16777215
370
    53
100
AcDbVertex
100
AcDb2dVertex
 10
729.1494800992429
 20
-324.3632276596459
 30
0.0
  0
VERTEX
  5
2E0
330
2D7
100
AcDbEntity
  8
Camada 1
 62
     7
420
 16777215
370
    53
100
AcDbVertex
100
AcDb2dVertex
 10
729.7099228801446
 20
-324.6477601484076
 30
0.0
  0
VERTEX
  5
2E1
330
2D7
100
AcDbEntity
  8
Camada 1
 62
     7
420
 16777215
370
    53
100
AcDbVertex
100
AcDb2dVertex
 10
730.2703656610471
 20
-324.9322926371706
 30
0.0
  0
VERTEX
  5
2E2
330
2D7
100
AcDbEntity
  8
Camada 1
 62
     7
420
 16777215
370
    53
100
AcDbVertex
100
AcDb2dVertex
 10
730.8308084419451
 20
-325.2167820149558
 30
0.0
  0
SEQEND
  5
2E3
330
2D7
100
AcDbEntity
  8
Camada 1
 62
     7
420
 16777215
370
    53
  0
POLYLINE
  5
2E4
330
1F
100
AcDbEntity
  8
Camada 1
 62
     7
420
 16777215
370
    18
100
AcDb2dPolyline
 66
     1
 10
0.0
 20
0.0
 30
0.0
  0
VERTEX
  5
2E5
330
2E4
100
AcDbEntity
  8
Camada 1
 62
     7
420
 16777215
370
    18
100
AcDbVertex
100
AcDb2dVertex
 10
199.2980372862992
 20
-10.68301519192175
 30
0.0
  0
VERTEX
  5
2E6
330
2E4
100
AcDbEntity
  8
Camada 1
 62
     7
420
 16777215
370
    18
100
AcDbVertex
100
AcDb2dVertex
 10
199.2980372862992
 20
449.822169459507
 30
0.0
  0
SEQEND
  5
2E7
330
2E4
100
AcDbEntity
  8
Camada 1
 62
     7
420
 16777215
370
    18
  0
POLYLINE
  5
2E8
330
1F
100
AcDbEntity
  8
Camada 1
 62
     7
420
 16777215
370
    18
100
AcDb2dPolyline
 66
     1
 10
0.0
 20
0.0
 30
0.0
  0
VERTEX
  5
2E9
330
2E8
100
AcDbEntity
  8
Camada 1
 62
     7
420
 16777215
370
    18
100
AcDbVertex
100
AcDb2dVertex
 10
223.3243917473392
 20
19.34994943987547
 30
0.0
  0
VERTEX
  5
2EA
330
2E8
100
AcDbEntity
  8
Camada 1
 62
     7
420
 16777215
370
    18
100
AcDbVertex
100
AcDb2dVertex
 10
223.3243917473392
 20
419.7891617167185
 30
0.0
  0
SEQEND
  5
2EB
330
2E8
100
AcDbEntity
  8
Camada 1
 62
     7
420
 16777215
370
    18
  0
POLYLINE
  5
2EC
330
1F
100
AcDbEntity
  8
Camada 1
 62
     7
420
 16777215
370
    18
100
AcDb2dPolyline
 66
     1
 10
0.0
 20
0.0
 30
0.0
  0
VERTEX
  5
2ED
330
2EC
100
AcDbEntity
  8
Camada 1
 62
     7
420
 16777215
370
    18
100
AcDbVertex
100
AcDb2dVertex
 10
247.3507462083912
 20
444.8166394283842
 30
0.0
  0
VERTEX
  5
2EE
330
2EC
100
AcDbEntity
  8
Camada 1
 62
     7
420
 16777215
370
    18
100
AcDbVertex
100
AcDb2dVertex
 10
247.3507462083912
 20
498.8759154102601
 30
0.0
  0
SEQEND
  5
2EF
330
2EC
100
AcDbEntity
  8
Camada 1
 62
     7
420
 16777215
370
    18
  0
POLYLINE
  5
2F0
330
1F
100
AcDbEntity
  8
Camada 1
 62
     7
420
 16777215
370
    18
100
AcDb2dPolyline
 66
     1
 10
0.0
 20
0.0
 30
0.0
  0
VERTEX
  5
2F1
330
2F0
100
AcDbEntity
  8
Camada 1
 62
     7
420
 16777215
370
    18
100
AcDbVertex
100
AcDb2dVertex
 10
277.3836677292144
 20
408.2765461114937
 30
0.0
  0
VERTEX
  5
2F2
330
2F0
100
AcDbEntity
  8
Camada 1
 62
     7
420
 16777215
370
    18
100
AcDbVertex
100
AcDb2dVertex
 10
277.3836677292144
 20
474.8495609492069
 30
0.0
  0
SEQEND
  5
2F3
330
2F0
100
AcDbEntity
  8
Camada 1
 62
     7
420
 16777215
370
    18
  0
POLYLINE
  5
2F4
330
1F
100
AcDbEntity
  8
Camada 1
 62
     7
420
 16777215
370
    18
100
AcDb2dPolyline
 66
     1
 10
0.0
 20
0.0
 30
0.0
  0
VERTEX
  5
2F5
330
2F4
100
AcDbEntity
  8
Camada 1
 62
     7
420
 16777215
370
    18
100
AcDbVertex
100
AcDb2dVertex
 10
477.6033169786214
 20
-34.70936965297302
 30
0.0
  0
VERTEX
  5
2F6
330
2F4
100
AcDbEntity
  8
Camada 1
 62
     7
420
 16777215
370
    18
100
AcDbVertex
100
AcDb2dVertex
 10
908.0754938872614
 20
-34.70936965297302
 30
0.0
  0
SEQEND
  5
2F7
330
2F4
100
AcDbEntity
  8
Camada 1
 62
     7
420
 16777215
370
    18
  0
POLYLINE
  5
2F8
330
1F
100
AcDbEntity
  8
Camada 1
 62
     7
420
 16777215
370
    18
100
AcDb2dPolyline
 66
     1
 10
0.0
 20
0.0
 30
0.0
  0
VERTEX
  5
2F9
330
2F8
100
AcDbEntity
  8
Camada 1
 62
     7
420
 16777215
370
    18
100
AcDbVertex
100
AcDb2dVertex
 10
252.3562331285348
 20
-10.68301519192175
 30
0.0
  0
VERTEX
  5
2FA
330
2F8
100
AcDbEntity
  8
Camada 1
 62
     7
420
 16777215
370
    18
100
AcDbVertex
100
AcDb2dVertex
 10
198.2969140356741
 20
-10.68301519192175
 30
0.0
  0
SEQEND
  5
2FB
330
2F8
100
AcDbEntity
  8
Camada 1
 62
     7
420
 16777215
370
    18
  0
POLYLINE
  5
2FC
330
1F
100
AcDbEntity
  8
Camada 1
 62
     7
420
 16777215
370
    18
100
AcDb2dPolyline
 66
     1
 10
0.0
 20
0.0
 30
0.0
  0
VERTEX
  5
2FD
330
2FC
100
AcDbEntity
  8
Camada 1
 62
     7
420
 16777215
370
    18
100
AcDbVertex
100
AcDb2dVertex
 10
288.8963264454144
 20
19.34994943987547
 30
0.0
  0
VERTEX
  5
2FE
330
2FC
100
AcDbEntity
  8
Camada 1
 62
     7
420
 16777215
370
    18
100
AcDbVertex
100
AcDb2dVertex
 10
222.3232684967257
 20
19.34994943987547
 30
0.0
  0
SEQEND
  5
2FF
330
2FC
100
AcDbEntity
  8
Camada 1
 62
     7
420
 16777215
370
    18
  0
POLYLINE
  5
300
330
1F
100
AcDbEntity
  8
Camada 1
 62
     7
420
 16777215
370
    18
100
AcDb2dPolyline
 66
     1
 10
0.0
 20
0.0
 30
0.0
  0
VERTEX
  5
301
330
300
100
AcDbEntity
  8
Camada 1
 62
     7
420
 16777215
370
    18
100
AcDbVertex
100
AcDb2dVertex
 10
477.6033169786214
 20
295.8081821702918
 30
0.0
  0
VERTEX
  5
302
330
300
100
AcDbEntity
  8
Camada 1
 62
     7
420
 16777215
370
    18
100
AcDbVertex
100
AcDb2dVertex
 10
477.6033169786214
 20
-35.71044979261229
 30
0.0
  0
SEQEND
  5
303
330
300
100
AcDbEntity
  8
Camada 1
 62
     7
420
 16777215
370
    18
  0
POLYLINE
  5
304
330
1F
100
AcDbEntity
  8
Camada 1
 62
     7
420
 16777215
370
    18
100
AcDb2dPolyline
 66
     1
 10
0.0
 20
0.0
 30
0.0
  0
VERTEX
  5
305
330
304
100
AcDbEntity
  8
Camada 1
 62
     7
420
 16777215
370
    18
100
AcDbVertex
100
AcDb2dVertex
 10
794.1150588193656
 20
299.6573894114653
 30
0.0
  0
VERTEX
  5
306
330
304
100
AcDbEntity
  8
Camada 1
 62
     7
420
 16777215
370
    18
100
AcDbVertex
100
AcDb2dVertex
 10
933.1029715989284
 20
299.6573894114653
 30
0.0
  0
SEQEND
  5
307
330
304
100
AcDbEntity
  8
Camada 1
 62
     7
420
 16777215
370
    18
  0
POLYLINE
  5
308
330
1F
100
AcDbEntity
  8
Camada 1
 62
     7
420
 16777215
370
    18
100
AcDb2dPolyline
 66
     1
 10
0.0
 20
0.0
 30
0.0
  0
VERTEX
  5
309
330
308
100
AcDbEntity
  8
Camada 1
 62
     7
420
 16777215
370
    18
100
AcDbVertex
100
AcDb2dVertex
 10
677.8229231170308
 20
408.2765461114937
 30
0.0
  0
VERTEX
  5
30A
330
308
100
AcDbEntity
  8
Camada 1
 62
     7
420
 16777215
370
    18
100
AcDbVertex
100
AcDb2dVertex
 10
677.8229231170308
 20
474.8495609492069
 30
0.0
  0
SEQEND
  5
30B
330
308
100
AcDbEntity
  8
Camada 1
 62
     7
420
 16777215
370
    18
  0
POLYLINE
  5
30C
330
1F
100
AcDbEntity
  8
Camada 1
 62
     7
420
 16777215
370
    18
100
AcDb2dPolyline
 66
     1
 10
0.0
 20
0.0
 30
0.0
  0
VERTEX
  5
30D
330
30C
100
AcDbEntity
  8
Camada 1
 62
     7
420
 16777215
370
    18
100
AcDbVertex
100
AcDb2dVertex
 10
707.8558446378546
 20
408.2765461114937
 30
0.0
  0
VERTEX
  5
30E
330
30C
100
AcDbEntity
  8
Camada 1
 62
     7
420
 16777215
370
    18
100
AcDbVertex
100
AcDb2dVertex
 10
707.8558446378546
 20
474.8495609492069
 30
0.0
  0
SEQEND
  5
30F
330
30C
100
AcDbEntity
  8
Camada 1
 62
     7
420
 16777215
370
    18
  0
POLYLINE
  5
310
330
1F
100
AcDbEntity
  8
Camada 1
 62
     7
420
 16777215
370
    18
100
AcDb2dPolyline
 66
     1
 10
0.0
 20
0.0
 30
0.0
  0
VERTEX
  5
311
330
310
100
AcDbEntity
  8
Camada 1
 62
     7
420
 16777215
370
    18
100
AcDbVertex
100
AcDb2dVertex
 10
792.9492516131296
 20
294.3955214745613
 30
0.0
  0
VERTEX
  5
312
330
310
100
AcDbEntity
  8
Camada 1
 62
     7
420
 16777215
370
    18
100
AcDbVertex
100
AcDb2dVertex
 10
792.9492516131296
 20
-35.71044979261229
 30
0.0
  0
SEQEND
  5
313
330
310
100
AcDbEntity
  8
Camada 1
 62
     7
420
 16777215
370
    18
  0
POLYLINE
  5
314
330
1F
100
AcDbEntity
  8
Camada 1
 62
     7
420
 16777215
370
    18
100
AcDb2dPolyline
 66
     1
 10
0.0
 20
0.0
 30
0.0
  0
VERTEX
  5
315
330
314
100
AcDbEntity
  8
Camada 1
 62
     7
420
 16777215
370
    18
100
AcDbVertex
100
AcDb2dVertex
 10
288.8963264454144
 20
419.7891617167185
 30
0.0
  0
VERTEX
  5
316
330
314
100
AcDbEntity
  8
Camada 1
 62
     7
420
 16777215
370
    18
100
AcDbVertex
100
AcDb2dVertex
 10
222.3232684967257
 20
419.7891617167185
 30
0.0
  0
SEQEND
  5
317
330
314
100
AcDbEntity
  8
Camada 1
 62
     7
420
 16777215
370
    18
  0
POLYLINE
  5
318
330
1F
100
AcDbEntity
  8
Camada 1
 62
     7
420
 16777215
370
    18
100
AcDb2dPolyline
 66
     1
 10
0.0
 20
0.0
 30
0.0
  0
VERTEX
  5
319
330
318
100
AcDbEntity
  8
Camada 1
 62
     7
420
 16777215
370
    18
100
AcDbVertex
100
AcDb2dVertex
 10
252.3562331285348
 20
449.822169459507
 30
0.0
  0
VERTEX
  5
31A
330
318
100
AcDbEntity
  8
Camada 1
 62
     7
420
 16777215
370
    18
100
AcDbVertex
100
AcDb2dVertex
 10
198.2969140356741
 20
449.822169459507
 30
0.0
  0
SEQEND
  5
31B
330
318
100
AcDbEntity
  8
Camada 1
 62
     7
420
 16777215
370
    18
  0
POLYLINE
  5
31C
330
1F
100
AcDbEntity
  8
Camada 1
 62
     7
420
 16777215
370
    18
100
AcDb2dPolyline
 66
     1
 10
0.0
 20
0.0
 30
0.0
  0
VERTEX
  5
31D
330
31C
100
AcDbEntity
  8
Camada 1
 62
     7
420
 16777215
370
    18
100
AcDbVertex
100
AcDb2dVertex
 10
903.0700500781071
 20
449.822169459507
 30
0.0
  0
VERTEX
  5
31E
330
31C
100
AcDbEntity
  8
Camada 1
 62
     7
420
 16777215
370
    18
100
AcDbVertex
100
AcDb2dVertex
 10
933.1029715989284
 20
449.822169459507
 30
0.0
  0
SEQEND
  5
31F
330
31C
100
AcDbEntity
  8
Camada 1
 62
     7
420
 16777215
370
    18
  0
POLYLINE
  5
320
330
1F
100
AcDbEntity
  8
Camada 1
 62
     7
420
 16777215
370
    18
100
AcDb2dPolyline
 66
     1
 10
0.0
 20
0.0
 30
0.0
  0
VERTEX
  5
321
330
320
100
AcDbEntity
  8
Camada 1
 62
     7
420
 16777215
370
    18
100
AcDbVertex
100
AcDb2dVertex
 10
277.3836677292144
 20
473.8485239205563
 30
0.0
  0
VERTEX
  5
322
330
320
100
AcDbEntity
  8
Camada 1
 62
     7
420
 16777215
370
    18
100
AcDbVertex
100
AcDb2dVertex
 10
878.04257236644
 20
473.8485239205563
 30
0.0
  0
SEQEND
  5
323
330
320
100
AcDbEntity
  8
Camada 1
 62
     7
420
 16777215
370
    18
  0
POLYLINE
  5
324
330
1F
100
AcDbEntity
  8
Camada 1
 62
     7
420
 16777215
370
    18
100
AcDb2dPolyline
 66
     1
 10
0.0
 20
0.0
 30
0.0
  0
VERTEX
  5
325
330
324
100
AcDbEntity
  8
Camada 1
 62
     7
420
 16777215
370
    18
100
AcDbVertex
100
AcDb2dVertex
 10
247.3507462083912
 20
497.8748783816069
 30
0.0
  0
VERTEX
  5
326
330
324
100
AcDbEntity
  8
Camada 1
 62
     7
420
 16777215
370
    18
100
AcDbVertex
100
AcDb2dVertex
 10
908.0754938872614
 20
497.8748783816069
 30
0.0
  0
SEQEND
  5
327
330
324
100
AcDbEntity
  8
Camada 1
 62
     7
420
 16777215
370
    18
  0
POLYLINE
  5
328
330
1F
100
AcDbEntity
  8
Camada 1
 62
     7
420
 16777215
370
    18
100
AcDb2dPolyline
 66
     1
 10
0.0
 20
0.0
 30
0.0
  0
VERTEX
  5
329
330
328
100
AcDbEntity
  8
Camada 1
 62
     7
420
 16777215
370
    18
100
AcDbVertex
100
AcDb2dVertex
 10
878.04257236644
 20
408.2765461114937
 30
0.0
  0
VERTEX
  5
32A
330
328
100
AcDbEntity
  8
Camada 1
 62
     7
420
 16777215
370
    18
100
AcDbVertex
100
AcDb2dVertex
 10
878.04257236644
 20
474.8495609492069
 30
0.0
  0
SEQEND
  5
32B
330
328
100
AcDbEntity
  8
Camada 1
 62
     7
420
 16777215
370
    18
  0
POLYLINE
  5
32C
330
1F
100
AcDbEntity
  8
Camada 1
 62
     7
420
 16777215
370
    18
100
AcDb2dPolyline
 66
     1
 10
0.0
 20
0.0
 30
0.0
  0
VERTEX
  5
32D
330
32C
100
AcDbEntity
  8
Camada 1
 62
     7
420
 16777215
370
    18
100
AcDbVertex
100
AcDb2dVertex
 10
908.0754938872614
 20
-5.677528271789031
 30
0.0
  0
VERTEX
  5
32E
330
32C
100
AcDbEntity
  8
Camada 1
 62
     7
420
 16777215
370
    18
100
AcDbVertex
100
AcDb2dVertex
 10
908.0754938872614
 20
-35.71044979261229
 30
0.0
  0
SEQEND
  5
32F
330
32C
100
AcDbEntity
  8
Camada 1
 62
     7
420
 16777215
370
    18
  0
POLYLINE
  5
330
330
1F
100
AcDbEntity
  8
Camada 1
 62
     7
420
 16777215
370
    18
100
AcDb2dPolyline
 66
     1
 10
0.0
 20
0.0
 30
0.0
  0
VERTEX
  5
331
330
330
100
AcDbEntity
  8
Camada 1
 62
     7
420
 16777215
370
    18
100
AcDbVertex
100
AcDb2dVertex
 10
908.0754938872614
 20
444.8166394283842
 30
0.0
  0
VERTEX
  5
332
330
330
100
AcDbEntity
  8
Camada 1
 62
     7
420
 16777215
370
    18
100
AcDbVertex
100
AcDb2dVertex
 10
908.0754938872614
 20
498.8759154102601
 30
0.0
  0
SEQEND
  5
333
330
330
100
AcDbEntity
  8
Camada 1
 62
     7
420
 16777215
370
    18
  0
POLYLINE
  5
334
330
1F
100
AcDbEntity
  8
Camada 1
 62
     7
420
 16777215
370
    18
100
AcDb2dPolyline
 66
     1
 10
0.0
 20
0.0
 30
0.0
  0
VERTEX
  5
335
330
334
100
AcDbEntity
  8
Camada 1
 62
     7
420
 16777215
370
    18
100
AcDbVertex
100
AcDb2dVertex
 10
932.1018483483133
 20
299.6573894114653
 30
0.0
  0
VERTEX
  5
336
330
334
100
AcDbEntity
  8
Camada 1
 62
     7
420
 16777215
370
    18
100
AcDbVertex
100
AcDb2dVertex
 10
932.1018483483133
 20
449.822169459507
 30
0.0
  0
SEQEND
  5
337
330
334
100
AcDbEntity
  8
Camada 1
 62
     7
420
 16777215
370
    18
  0
POLYLINE
  5
338
330
1F
100
AcDbEntity
  8
Camada 1
 62
     7
420
 16777215
370
    18
100
AcDb2dPolyline
 66
     1
 10
0.0
 20
0.0
 30
0.0
  0
VERTEX
  5
339
330
338
100
AcDbEntity
  8
Camada 1
 62
     7
420
 16777215
370
    18
100
AcDbVertex
100
AcDb2dVertex
 10
523.9129195191719
 20
-393.2646020305872
 30
0.0
  0
VERTEX
  5
33A
330
338
100
AcDbEntity
  8
Camada 1
 62
     7
420
 16777215
370
    18
100
AcDbVertex
100
AcDb2dVertex
 10
957.1293260599804
 20
-393.2646020305872
 30
0.0
  0
SEQEND
  5
33B
330
338
100
AcDbEntity
  8
Camada 1
 62
     7
420
 16777215
370
    18
  0
POLYLINE
  5
33C
330
1F
100
AcDbEntity
  8
Camada 1
 62
     7
420
 16777215
370
    18
100
AcDb2dPolyline
 66
     1
 10
0.0
 20
0.0
 30
0.0
  0
VERTEX
  5
33D
330
33C
100
AcDbEntity
  8
Camada 1
 62
     7
420
 16777215
370
    18
100
AcDbVertex
100
AcDb2dVertex
 10
839.2588110427006
 20
-331.1965340432077
 30
0.0
  0
VERTEX
  5
33E
330
33C
100
AcDbEntity
  8
Camada 1
 62
     7
420
 16777215
370
    18
100
AcDbVertex
100
AcDb2dVertex
 10
933.1029715989284
 20
-331.1965340432077
 30
0.0
  0
SEQEND
  5
33F
330
33C
100
AcDbEntity
  8
Camada 1
 62
     7
420
 16777215
370
    18
  0
POLYLINE
  5
340
330
1F
100
AcDbEntity
  8
Camada 1
 62
     7
420
 16777215
370
    18
100
AcDb2dPolyline
 66
     1
 10
0.0
 20
0.0
 30
0.0
  0
VERTEX
  5
341
330
340
100
AcDbEntity
  8
Camada 1
 62
     7
420
 16777215
370
    18
100
AcDbVertex
100
AcDb2dVertex
 10
909.0766171378772
 20
-177.212336443348
 30
0.0
  0
VERTEX
  5
342
330
340
100
AcDbEntity
  8
Camada 1
 62
     7
420
 16777215
370
    18
100
AcDbVertex
100
AcDb2dVertex
 10
957.1293260599804
 20
-177.212336443348
 30
0.0
  0
SEQEND
  5
343
330
340
100
AcDbEntity
  8
Camada 1
 62
     7
420
 16777215
370
    18
  0
POLYLINE
  5
344
330
1F
100
AcDbEntity
  8
Camada 1
 62
     7
420
 16777215
370
    18
100
AcDb2dPolyline
 66
     1
 10
0.0
 20
0.0
 30
0.0
  0
VERTEX
  5
345
330
344
100
AcDbEntity
  8
Camada 1
 62
     7
420
 16777215
370
    18
100
AcDbVertex
100
AcDb2dVertex
 10
932.1018483483133
 20
-331.1965340432077
 30
0.0
  0
VERTEX
  5
346
330
344
100
AcDbEntity
  8
Camada 1
 62
     7
420
 16777215
370
    18
100
AcDbVertex
100
AcDb2dVertex
 10
932.1018483483133
 20
-177.212336443348
 30
0.0
  0
SEQEND
  5
347
330
344
100
AcDbEntity
  8
Camada 1
 62
     7
420
 16777215
370
    18
  0
POLYLINE
  5
348
330
1F
100
AcDbEntity
  8
Camada 1
 62
     7
420
 16777215
370
    18
100
AcDb2dPolyline
 66
     1
 10
0.0
 20
0.0
 30
0.0
  0
VERTEX
  5
349
330
348
100
AcDbEntity
  8
Camada 1
 62
     7
420
 16777215
370
    18
100
AcDbVertex
100
AcDb2dVertex
 10
956.1282028093646
 20
-393.2646020305872
 30
0.0
  0
VERTEX
  5
34A
330
348
100
AcDbEntity
  8
Camada 1
 62
     7
420
 16777215
370
    18
100
AcDbVertex
100
AcDb2dVertex
 10
956.1282028093646
 20
-177.212336443348
 30
0.0
  0
SEQEND
  5
34B
330
348
100
AcDbEntity
  8
Camada 1
 62
     7
420
 16777215
370
    18
  0
SPLINE
  5
34C
330
1F
100
AcDbEntity
  8
Camada 1
 62
     7
420
 16777215
370
    53
100
AcDbSpline
210
0.0
220
0.0
230
1.0
 70
    11
 71
     3
 72
    17
 73
    13
 74
     0
 42
0.0000000001
 43
0.0000000001
 12
1.0
 22
0.0
 32
0.0
 13
1.0
 23
0.0
 33
0.0
 40
0.0
 40
0.0
 40
0.0
 40
0.0
 40
1.0
 40
1.0
 40
1.0
 40
2.0
 40
2.0
 40
2.0
 40
3.0
 40
3.0
 40
3.0
 40
4.0
 40
4.0
 40
4.0
 40
4.0
 10
837.9986770053384
 20
299.6573894114653
 30
0.0
 10
837.9986770053384
 20
324.5375137827444
 30
0.0
 10
817.8292897624325
 20
344.7068148036857
 30
0.0
 10
792.9492516131296
 20
344.7068148036857
 30
0.0
 10
768.0691272418621
 20
344.7068148036857
 30
0.0
 10
747.8998262209176
 20
324.5375137827444
 30
0.0
 10
747.8998262209176
 20
299.6573894114653
 30
0.0
 10
747.8998262209176
 20
274.7772650401952
 30
0.0
 10
768.0691272418621
 20
254.6079640192558
 30
0.0
 10
792.9492516131296
 20
254.6079640192558
 30
0.0
 10
817.8292897624325
 20
254.6079640192558
 30
0.0
 10
837.9986770053384
 20
274.7772650401952
 30
0.0
 10
837.9986770053384
 20
299.6573894114653
 30
0.0
  0
SPLINE
  5
34D
330
1F
100
AcDbEntity
  8
Camada 1
 62
     7
420
 16777215
370
    53
100
AcDbSpline
210
0.0
220
0.0
230
1.0
 70
    11
 71
     3
 72
    17
 73
    13
 74
     0
 42
0.0000000001
 43
0.0000000001
 12
1.0
 22
0.0
 32
0.0
 13
1.0
 23
0.0
 33
0.0
 40
0.0
 40
0.0
 40
0.0
 40
0.0
 40
1.0
 40
1.0
 40
1.0
 40
2.0
 40
2.0
 40
2.0
 40
3.0
 40
3.0
 40
3.0
 40
4.0
 40
4.0
 40
4.0
 40
4.0
 10
522.6526992598554
 20
299.6573894114653
 30
0.0
 10
522.6526992598554
 20
324.5375137827444
 30
0.0
 10
502.4833982389121
 20
344.7068148036857
 30
0.0
 10
477.6033169786214
 20
344.7068148036857
 30
0.0
 10
452.723192607343
 20
344.7068148036857
 30
0.0
 10
432.5538915864004
 20
324.5375137827444
 30
0.0
 10
432.5538915864004
 20
299.6573894114653
 30
0.0
 10
432.5538915864004
 20
274.7772650401952
 30
0.0
 10
452.723192607343
 20
254.6079640192558
 30
0.0
 10
477.6033169786214
 20
254.6079640192558
 30
0.0
 10
502.4833982389121
 20
254.6079640192558
 30
0.0
 10
522.6526992598554
 20
274.7772650401952
 30
0.0
 10
522.6526992598554
 20
299.6573894114653
 30
0.0
  0
MTEXT
  5
34E
330
1F
100
AcDbEntity
  8
Camada 1
 62
     7
420
 16777215
100
AcDbMText
 10
632.1997017158449
 20
382.7812400206477
 30
0.0
 40
10.48468311212546
 41
0.0
 46
0.0
 71
     7
 72
     1
  1
\fHelvetica Light|b0|i0|c0|p34;\W1;R12.5
 11
0.8507385468619653
 21
0.525589121732168
 31
0.0
 73
     1
 44
1.0
  0
ENDSEC
  0
SECTION
  2
OBJECTS
  0
DICTIONARY
  5
C
330
0
100
AcDbDictionary
281
     1
  3
ACAD_GROUP
350
D
  3
ACAD_LAYOUT
350
1A
  3
ACAD_MATERIAL
350
3B
  3
ACAD_MLEADERSTYLE
350
350
  3
ACAD_MLINESTYLE
350
17
  3
ACAD_PLOTSETTINGS
350
19
  3
ACAD_PLOTSTYLENAME
350
E
  3
ACAD_TABLESTYLE
350
34F
  3
ACAD_VISUALSTYLE
350
2A
  0
SUN
  5
3F
330
29
100
AcDbSun
 90
        1
290
     0
 63
     7
421
 16777215
 40
1.0
291
     1
 91
  2455826
 92
 54000000
292
     0
 70
     2
 71
   256
280
     1
  0
DICTIONARY
  5
D
102
{ACAD_REACTORS
330
C
102
}
330
C
100
AcDbDictionary
281
     1
  0
DICTIONARY
  5
1A
102
{ACAD_REACTORS
330
C
102
}
330
C
100
AcDbDictionary
281
     1
  3
Layout1
350
1E
  3
Layout2
350
26
  3
Model
350
22
  0
DICTIONARY
  5
3B
102
{ACAD_REACTORS
330
C
102
}
330
C
100
AcDbDictionary
281
     1
  3
ByBlock
350
3D
  3
ByLayer
350
3C
  3
Global
350
3E
  0
DICTIONARY
  5
350
102
{ACAD_REACTORS
330
C
102
}
330
C
100
AcDbDictionary
281
     1
  0
DICTIONARY
  5
17
102
{ACAD_REACTORS
330
C
102
}
330
C
100
AcDbDictionary
281
     1
  3
Standard
350
18
  0
DICTIONARY
  5
19
102
{ACAD_REACTORS
330
C
102
}
330
C
100
AcDbDictionary
281
     1
  0
ACDBDICTIONARYWDFLT
  5
E
102
{ACAD_REACTORS
330
C
102
}
330
C
100
AcDbDictionary
281
     1
  3
Normal
350
F
100
AcDbDictionaryWithDefault
340
F
  0
DICTIONARY
  5
34F
102
{ACAD_REACTORS
330
C
102
}
330
C
100
AcDbDictionary
281
     1
  0
DICTIONARY
  5
2A
102
{ACAD_REACTORS
330
C
102
}
330
C
100
AcDbDictionary
281
     1
  3
2dWireframe
350
2F
  3
3D Hidden
350
31
  3
3dWireframe
350
30
  3
Basic
350
32
  3
Brighten
350
36
  3
ColorChange
350
3A
  3
Conceptual
350
34
  3
Dim
350
35
  3
Facepattern
350
39
  3
Flat
350
2B
  3
FlatWithEdges
350
2C
  3
Gouraud
350
2D
  3
GouraudWithEdges
350
2E
  3
Linepattern
350
38
  3
Realistic
350
33
  3
Thicken
350
37
  0
LAYOUT
  5
1E
102
{ACAD_REACTORS
330
1A
102
}
330
1A
100
AcDbPlotSettings
  1

  2
none_device
  4

  6

 40
0.0
 41
0.0
 42
0.0
 43
0.0
 44
0.0
 45
0.0
 46
0.0
 47
0.0
 48
0.0
 49
0.0
140
0.0
141
0.0
142
1.0
143
1.0
 70
   688
 72
     0
 73
     0
 74
     5
  7

 75
    16
 76
     0
 77
     2
 78
   300
147
1.0
148
0.0
149
0.0
100
AcDbLayout
  1
Layout1
 70
     1
 71
     1
 10
0.0
 20
0.0
 11
12.0
 21
9.0
 12
0.0
 22
0.0
 32
0.0
 14
1.000000000000000E+20
 24
1.000000000000000E+20
 34
1.000000000000000E+20
 15
-1.000000000000000E+20
 25
-1.000000000000000E+20
 35
-1.000000000000000E+20
146
0.0
 13
0.0
 23
0.0
 33
0.0
 16
1.0
 26
0.0
 36
0.0
 17
0.0
 27
1.0
 37
0.0
 76
     0
330
1B
  0
LAYOUT
  5
26
102
{ACAD_REACTORS
330
1A
102
}
330
1A
100
AcDbPlotSettings
  1

  2
none_device
  4

  6

 40
0.0
 41
0.0
 42
0.0
 43
0.0
 44
0.0
 45
0.0
 46
0.0
 47
0.0
 48
0.0
 49
0.0
140
0.0
141
0.0
142
1.0
143
1.0
 70
   688
 72
     0
 73
     0
 74
     5
  7

 75
    16
 76
     0
 77
     2
 78
   300
147
1.0
148
0.0
149
0.0
100
AcDbLayout
  1
Layout2
 70
     1
 71
     2
 10
0.0
 20
0.0
 11
0.0
 21
0.0
 12
0.0
 22
0.0
 32
0.0
 14
0.0
 24
0.0
 34
0.0
 15
0.0
 25
0.0
 35
0.0
146
0.0
 13
0.0
 23
0.0
 33
0.0
 16
1.0
 26
0.0
 36
0.0
 17
0.0
 27
1.0
 37
0.0
 76
     0
330
23
  0
LAYOUT
  5
22
102
{ACAD_REACTORS
330
1A
102
}
330
1A
100
AcDbPlotSettings
  1

  2
none_device
  4

  6

 40
0.0
 41
0.0
 42
0.0
 43
0.0
 44
0.0
 45
0.0
 46
0.0
 47
0.0
 48
0.0
 49
0.0
140
0.0
141
0.0
142
1.0
143
1.0
 70
  1712
 72
     0
 73
     0
 74
     0
  7

 75
     0
 76
     0
 77
     2
 78
   300
147
1.0
148
0.0
149
0.0
100
AcDbLayout
  1
Model
 70
     1
 71
     0
 10
0.0
 20
0.0
 11
12.0
 21
9.0
 12
0.0
 22
0.0
 32
0.0
 14
1.000000000000000E+20
 24
1.000000000000000E+20
 34
1.000000000000000E+20
 15
-1.000000000000000E+20
 25
-1.000000000000000E+20
 35
-1.000000000000000E+20
146
0.0
 13
0.0
 23
0.0
 33
0.0
 16
1.0
 26
0.0
 36
0.0
 17
0.0
 27
1.0
 37
0.0
 76
     0
330
1F
331
29
  0
MATERIAL
  5
3D
102
{ACAD_REACTORS
330
3B
102
}
330
3B
100
AcDbMaterial
  1
ByBlock
 72
     1
 94
      127
  0
MATERIAL
  5
3C
102
{ACAD_REACTORS
330
3B
102
}
330
3B
100
AcDbMaterial
  1
ByLayer
 72
     1
 94
      127
  0
MATERIAL
  5
3E
102
{ACAD_REACTORS
330
3B
102
}
330
3B
100
AcDbMaterial
  1
Global
 72
     1
 94
      127
  0
MLINESTYLE
  5
18
102
{ACAD_REACTORS
330
17
102
}
330
17
100
AcDbMlineStyle
  2
Standard
 70
     0
  3

 62
   256
 51
90.0
 52
90.0
 71
     2
 49
0.5
 62
   256
  6
BYLAYER
 49
-0.5
 62
   256
  6
BYLAYER
  0
ACDBPLACEHOLDER
  5
F
102
{ACAD_REACTORS
330
E
102
}
330
E
  0
VISUALSTYLE
  5
2F
102
{ACAD_REACTORS
330
2A
102
}
330
2A
100
AcDbVisualStyle
  2
2dWireframe
 70
     4
177
     2
291
     0
 71
     0
176
     1
 72
     2
176
     1
 73
     0
176
     1
 90
        0
176
     1
 40
-0.6
176
     1
 41
-30.0
176
     1
 62
     5
 63
     7
421
 16777215
176
     1
 74
     1
176
     1
 91
        4
176
     1
 64
     7
176
     1
 65
   257
176
     1
 75
     1
176
     1
175
     1
176
     1
 42
1.0
176
     1
 92
        0
176
     1
 66
   257
176
     1
 43
1.0
176
     1
 76
     1
176
     1
 77
     6
176
     1
 78
     2
176
     1
 67
     7
176
     1
 79
     5
176
     1
170
     0
176
     1
171
     0
176
     1
290
     0
176
     1
 93
        1
176
     1
 44
0.0
176
     1
173
     0
176
     1
  0
VISUALSTYLE
  5
31
102
{ACAD_REACTORS
330
2A
102
}
330
2A
100
AcDbVisualStyle
  2
3D Hidden
 70
     6
177
     2
291
     0
 71
     1
176
     1
 72
     2
176
     1
 73
     2
176
     1
 90
        0
176
     1
 40
-0.6
176
     1
 41
-30.0
176
     1
 62
     5
 63
     7
421
 16777215
176
     1
 74
     2
176
     1
 91
        2
176
     1
 64
     7
176
     1
 65
   257
176
     1
 75
     2
176
     1
175
     1
176
     1
 42
40.0
176
     1
 92
        0
176
     1
 66
   257
176
     1
 43
1.0
176
     1
 76
     1
176
     1
 77
     6
176
     1
 78
     2
176
     1
 67
     7
176
     1
 79
     3
176
     1
170
     0
176
     1
171
     0
176
     1
290
     0
176
     1
 93
        1
176
     1
 44
0.0
176
     1
173
     0
176
     1
  0
VISUALSTYLE
  5
30
102
{ACAD_REACTORS
330
2A
102
}
330
2A
100
AcDbVisualStyle
  2
3dWireframe
 70
     5
177
     2
291
     0
 71
     0
176
     1
 72
     2
176
     1
 73
     0
176
     1
 90
        0
176
     1
 40
-0.6
176
     1
 41
-30.0
176
     1
 62
     5
 63
     7
421
 16777215
176
     1
 74
     1
176
     1
 91
        4
176
     1
 64
     7
176
     1
 65
   257
176
     1
 75
     1
176
     1
175
     1
176
     1
 42
1.0
176
     1
 92
        0
176
     1
 66
   257
176
     1
 43
1.0
176
     1
 76
     1
176
     1
 77
     6
176
     1
 78
     2
176
     1
 67
     7
176
     1
 79
     5
176
     1
170
     0
176
     1
171
     0
176
     1
290
     0
176
     1
 93
        1
176
     1
 44
0.0
176
     1
173
     0
176
     1
  0
VISUALSTYLE
  5
32
102
{ACAD_REACTORS
330
2A
102
}
330
2A
100
AcDbVisualStyle
  2
Basic
 70
     7
177
     2
291
     1
 71
     1
176
     1
 72
     0
176
     1
 73
     1
176
     1
 90
        0
176
     1
 40
-0.6
176
     1
 41
-30.0
176
     1
 62
     5
 63
     7
421
 16777215
176
     1
 74
     0
176
     1
 91
        4
176
     1
 64
     7
176
     1
 65
   257
176
     1
 75
     1
176
     1
175
     1
176
     1
 42
1.0
176
     1
 92
        8
176
     1
 66
     7
176
     1
 43
1.0
176
     1
 76
     1
176
     1
 77
     6
176
     1
 78
     2
176
     1
 67
     7
176
     1
 79
     5
176
     1
170
     0
176
     1
171
     0
176
     1
290
     0
176
     1
 93
        1
176
     1
 44
0.0
176
     1
173
     0
176
     1
  0
VISUALSTYLE
  5
36
102
{ACAD_REACTORS
330
2A
102
}
330
2A
100
AcDbVisualStyle
  2
Brighten
 70
    12
177
     2
291
     1
 71
     2
176
     1
 72
     2
176
     1
 73
     0
176
     1
 90
        0
176
     1
 40
-0.6
176
     1
 41
-30.0
176
     1
 62
     5
 63
     7
421
 16777215
176
     1
 74
     1
176
     1
 91
        4
176
     1
 64
     7
176
     1
 65
   257
176
     1
 75
     1
176
     1
175
     1
176
     1
 42
1.0
176
     1
 92
        8
176
     1
 66
     7
176
     1
 43
1.0
176
     1
 76
     1
176
     1
 77
     6
176
     1
 78
     2
176
     1
 67
     7
176
     1
 79
     5
176
     1
170
     0
176
     1
171
     0
176
     1
290
     0
176
     1
 93
        1
176
     1
 44
50.0
176
     1
173
     0
176
     1
  0
VISUALSTYLE
  5
3A
102
{ACAD_REACTORS
330
2A
102
}
330
2A
100
AcDbVisualStyle
  2
ColorChange
 70
    16
177
     2
291
     1
 71
     2
176
     1
 72
     2
176
     1
 73
     3
176
     1
 90
        0
176
     1
 40
-0.6
176
     1
 41
-30.0
176
     1
 62
     5
 63
     8
421
  8421504
176
     1
 74
     1
176
     1
 91
        4
176
     1
 64
     7
176
     1
 65
   257
176
     1
 75
     1
176
     1
175
     1
176
     1
 42
1.0
176
     1
 92
        8
176
     1
 66
     8
424
  8421504
176
     1
 43
1.0
176
     1
 76
     1
176
     1
 77
     6
176
     1
 78
     2
176
     1
 67
     7
176
     1
 79
     5
176
     1
170
     0
176
     1
171
     0
176
     1
290
     0
176
     1
 93
        1
176
     1
 44
0.0
176
     1
173
     0
176
     1
  0
VISUALSTYLE
  5
34
102
{ACAD_REACTORS
330
2A
102
}
330
2A
100
AcDbVisualStyle
  2
Conceptual
 70
     9
177
     2
291
     0
 71
     3
176
     1
 72
     2
176
     1
 73
     0
176
     1
 90
        0
176
     1
 40
-0.6
176
     1
 41
-30.0
176
     1
 62
     5
 63
     7
421
 16777215
176
     1
 74
     2
176
     1
 91
        2
176
     1
 64
     7
176
     1
 65
   257
176
     1
 75
     1
176
     1
175
     1
176
     1
 42
40.0
176
     1
 92
        8
176
     1
 66
     7
176
     1
 43
1.0
176
     1
 76
     1
176
     1
 77
     6
176
     1
 78
     2
176
     1
 67
     7
176
     1
 79
     3
176
     1
170
     0
176
     1
171
     0
176
     1
290
     0
176
     1
 93
        1
176
     1
 44
0.0
176
     1
173
     0
176
     1
  0
VISUALSTYLE
  5
35
102
{ACAD_REACTORS
330
2A
102
}
330
2A
100
AcDbVisualStyle
  2
Dim
 70
    11
177
     2
291
     1
 71
     2
176
     1
 72
     2
176
     1
 73
     0
176
     1
 90
        0
176
     1
 40
-0.6
176
     1
 41
-30.0
176
     1
 62
     5
 63
     7
421
 16777215
176
     1
 74
     1
176
     1
 91
        4
176
     1
 64
     7
176
     1
 65
   257
176
     1
 75
     1
176
     1
175
     1
176
     1
 42
1.0
176
     1
 92
        8
176
     1
 66
     7
176
     1
 43
1.0
176
     1
 76
     1
176
     1
 77
     6
176
     1
 78
     2
176
     1
 67
     7
176
     1
 79
     5
176
     1
170
     0
176
     1
171
     0
176
     1
290
     0
176
     1
 93
        1
176
     1
 44
-50.0
176
     1
173
     0
176
     1
  0
VISUALSTYLE
  5
39
102
{ACAD_REACTORS
330
2A
102
}
330
2A
100
AcDbVisualStyle
  2
Facepattern
 70
    15
177
     2
291
     1
 71
     2
176
     1
 72
     2
176
     1
 73
     0
176
     1
 90
        0
176
     1
 40
-0.6
176
     1
 41
-30.0
176
     1
 62
     5
 63
     7
421
 16777215
176
     1
 74
     1
176
     1
 91
        4
176
     1
 64
     7
176
     1
 65
   257
176
     1
 75
     1
176
     1
175
     1
176
     1
 42
1.0
176
     1
 92
        8
176
     1
 66
     7
176
     1
 43
1.0
176
     1
 76
     1
176
     1
 77
     6
176
     1
 78
     2
176
     1
 67
     7
176
     1
 79
     5
176
     1
170
     0
176
     1
171
     0
176
     1
290
     0
176
     1
 93
        1
176
     1
 44
0.0
176
     1
173
     0
176
     1
  0
VISUALSTYLE
  5
2B
102
{ACAD_REACTORS
330
2A
102
}
330
2A
100
AcDbVisualStyle
  2
Flat
 70
     0
177
     2
291
     1
 71
     2
176
     1
 72
     1
176
     1
 73
     1
176
     1
 90
        2
176
     1
 40
-0.6
176
     1
 41
30.0
176
     1
 62
     5
 63
     7
421
 16777215
176
     1
 74
     0
176
     1
 91
        4
176
     1
 64
     7
176
     1
 65
   257
176
     1
 75
     1
176
     1
175
     1
176
     1
 42
1.0
176
     1
 92
        8
176
     1
 66
     7
176
     1
 43
1.0
176
     1
 76
     1
176
     1
 77
     6
176
     1
 78
     2
176
     1
 67
     7
176
     1
 79
     5
176
     1
170
     0
176
     1
171
     0
176
     1
290
     0
176
     1
 93
       13
176
     1
 44
0.0
176
     1
173
     0
176
     1
  0
VISUALSTYLE
  5
2C
102
{ACAD_REACTORS
330
2A
102
}
330
2A
100
AcDbVisualStyle
  2
FlatWithEdges
 70
     1
177
     2
291
     1
 71
     2
176
     1
 72
     1
176
     1
 73
     1
176
     1
 90
        2
176
     1
 40
-0.6
176
     1
 41
30.0
176
     1
 62
     5
 63
     7
421
 16777215
176
     1
 74
     1
176
     1
 91
        4
176
     1
 64
     7
176
     1
 65
   257
176
     1
 75
     1
176
     1
175
     1
176
     1
 42
1.0
176
     1
 92
        0
176
     1
 66
   257
176
     1
 43
1.0
176
     1
 76
     1
176
     1
 77
     6
176
     1
 78
     2
176
     1
 67
     7
176
     1
 79
     5
176
     1
170
     0
176
     1
171
     0
176
     1
290
     0
176
     1
 93
       13
176
     1
 44
0.0
176
     1
173
     0
176
     1
  0
VISUALSTYLE
  5
2D
102
{ACAD_REACTORS
330
2A
102
}
330
2A
100
AcDbVisualStyle
  2
Gouraud
 70
     2
177
     2
291
     1
 71
     2
176
     1
 72
     2
176
     1
 73
     1
176
     1
 90
        2
176
     1
 40
-0.6
176
     1
 41
30.0
176
     1
 62
     5
 63
     7
421
 16777215
176
     1
 74
     0
176
     1
 91
        4
176
     1
 64
     7
176
     1
 65
   257
176
     1
 75
     1
176
     1
175
     1
176
     1
 42
1.0
176
     1
 92
        0
176
     1
 66
     7
176
     1
 43
1.0
176
     1
 76
     1
176
     1
 77
     6
176
     1
 78
     2
176
     1
 67
     7
176
     1
 79
     5
176
     1
170
     0
176
     1
171
     0
176
     1
290
     0
176
     1
 93
       13
176
     1
 44
0.0
176
     1
173
     0
176
     1
  0
VISUALSTYLE
  5
2E
102
{ACAD_REACTORS
330
2A
102
}
330
2A
100
AcDbVisualStyle
  2
GouraudWithEdges
 70
     3
177
     2
291
     1
 71
     2
176
     1
 72
     2
176
     1
 73
     1
176
     1
 90
        2
176
     1
 40
-0.6
176
     1
 41
30.0
176
     1
 62
     5
 63
     7
421
 16777215
176
     1
 74
     1
176
     1
 91
        4
176
     1
 64
     7
176
     1
 65
   257
176
     1
 75
     1
176
     1
175
     1
176
     1
 42
1.0
176
     1
 92
        0
176
     1
 66
   257
176
     1
 43
1.0
176
     1
 76
     1
176
     1
 77
     6
176
     1
 78
     2
176
     1
 67
     7
176
     1
 79
     5
176
     1
170
     0
176
     1
171
     0
176
     1
290
     0
176
     1
 93
       13
176
     1
 44
0.0
176
     1
173
     0
176
     1
  0
VISUALSTYLE
  5
38
102
{ACAD_REACTORS
330
2A
102
}
330
2A
100
AcDbVisualStyle
  2
Linepattern
 70
    14
177
     2
291
     1
 71
     2
176
     1
 72
     2
176
     1
 73
     0
176
     1
 90
        0
176
     1
 40
-0.6
176
     1
 41
-30.0
176
     1
 62
     5
 63
     7
421
 16777215
176
     1
 74
     1
176
     1
 91
        4
176
     1
 64
     7
176
     1
 65
   257
176
     1
 75
     7
176
     1
175
     7
176
     1
 42
1.0
176
     1
 92
        8
176
     1
 66
     7
176
     1
 43
1.0
176
     1
 76
     1
176
     1
 77
     6
176
     1
 78
     2
176
     1
 67
     7
176
     1
 79
     5
176
     1
170
     0
176
     1
171
     0
176
     1
290
     0
176
     1
 93
        1
176
     1
 44
0.0
176
     1
173
     0
176
     1
  0
VISUALSTYLE
  5
33
102
{ACAD_REACTORS
330
2A
102
}
330
2A
100
AcDbVisualStyle
  2
Realistic
 70
     8
177
     2
291
     0
 71
     2
176
     1
 72
     2
176
     1
 73
     0
176
     1
 90
        0
176
     1
 40
-0.6
176
     1
 41
-30.0
176
     1
 62
     5
 63
     7
421
 16777215
176
     1
 74
     1
176
     1
 91
        0
176
     1
 64
     7
176
     1
 65
   257
176
     1
 75
     1
176
     1
175
     1
176
     1
 42
1.0
176
     1
 92
        8
176
     1
 66
     8
424
  7895160
176
     1
 43
1.0
176
     1
 76
     1
176
     1
 77
     6
176
     1
 78
     2
176
     1
 67
     7
176
     1
 79
     5
176
     1
170
     0
176
     1
171
     0
176
     1
290
     0
176
     1
 93
       13
176
     1
 44
0.0
176
     1
173
     0
176
     1
  0
VISUALSTYLE
  5
37
102
{ACAD_REACTORS
330
2A
102
}
330
2A
100
AcDbVisualStyle
  2
Thicken
 70
    13
177
     2
291
     1
 71
     2
176
     1
 72
     2
176
     1
 73
     0
176
     1
 90
        0
176
     1
 40
-0.6
176
     1
 41
-30.0
176
     1
 62
     5
 63
     7
421
 16777215
176
     1
 74
     1
176
     1
 91
        4
176
     1
 64
     7
176
     1
 65
   257
176
     1
 75
     1
176
     1
175
     1
176
     1
 42
1.0
176
     1
 92
       12
176
     1
 66
     7
176
     1
 43
1.0
176
     1
 76
     1
176
     1
 77
     6
176
     1
 78
     2
176
     1
 67
     7
176
     1
 79
     5
176
     1
170
     0
176
     1
171
     0
176
     1
290
     0
176
     1
 93
        1
176
     1
 44
0.0
176
     1
173
     0
176
     1
  0
ENDSEC
  0
EOF
